Save Yourself by Stabbing Westward

Tabbed By Dave Bloom

[email protected]


This song has more guitar than lots of other songs on the record.
     It has a lot of different parts placed brilliantly throughout
     the song.

The tuning is 1/2 step down

       Eb
       Ab
       Db
       Gb
       Bb
       eb

Chords used...

  F#  | E | A | D | E2| F#2 | D2 | E3|
  ----|---|---|---|---|-----|----|---|--------------|
  ----|---|---|---|---|-----|----|---|--------------|
  -3--|-1-|-6-|-7-|-9-|-11--|-7--|-9-|--------------|
  -4--|-2-|-7-|-7-|-9-|-----|----|---|--------------|
  -4--|-2-|-7-|-5-|-7-|--9--|-5--|-7-|--------------|
  -2--|-0-|-5-|---|---|-----|----|---|--------------|


 WHEN I TAB I DON'T TAB EVERYTHING
        I'LL SHOW THE CHORD AND THEN TAB THE PARTS THAT
        ACTUALLY NEED TO BE TABBED... I'LL SHOW YOU WHERE TO
        CHANGE CHORDS, BY PUTTING THE CHORD NAME OVER THE LYRICS


 INTRO... AND PART OF THE CHORUS.  THE CHORUS CONSISTS OF A D
          THEN AN E, THEN THAT INTRO RIFF.  WHEN YOU LISTEN AND
          START TO PLAY ALONG YOU WILL GET IT WITHOUT A PROBLEM.

 WHEN YOU DEADEN (THE X's) THE STRINGS IT WILL CREATE THE
      HARMONICS...
  ------------------------------------  0:26--|
  --------------------------------------------|   PLAY 8 TIMES
  --------------------------------------------|       (RIFF A)
  -3-3-X-X-X-X-3-3--1-1-6---------------------|
  -4-4-X-X-X-X-4-4--2-2-7---------------------|
  -4-4-X-X-X-X-4-4--2-2-7---------------------|
  -2-2-X-X-X-X-2-2--0-0-5---------------------|

   I know your life is empty

   And you hate to face this world alone

   So your searching for an angel

   Someone who can make you whole


   D       E2       F#  F# E A  F#  F# E A
   I cannot save you

   D            E2         F#  F# E A F#  F# E A
   I can't even save myself

  F#       F# E A    F#
   So just save yourself


   I know that you've been damaged

   Your soul has suffered such abuse

   But I am not your savior

   I am just as ***ed as you...  (I am just as ***ed as you)

   D       E2       F#   F# E A F#  F# E A
   I cannot save you

   D            E2         F#  F# E A  F#   F# E A
   I can't even save myself

 F#     F#  E  A    F#
   So just save yourself

INTERLUDE     PLAY 4 TIMES

------------------------------------------------------------------|
------------------------------------------------------------------|
------------------------------------------------------------------|
------------------------------------------------------------------|
--6-6-6-6-6-6-6-6-6-6-6-------------------------------------------|
------------------------7-7-7-7-7-7-7-7-7-7-6-6-6-6-6-6-6-6-6-6-6-|

-----------------------------------------------------------------|
-----------------------------------------------------------------|
-----------------------------------------------------------------|
-----------------------------------------------------------------|
-----------------------------------------------------------------|
--5-5-5-5-5-5-5-5-5-5-5-5----------------------------------------|


   Please don't take pity on me


   Please don't take pity on me

   F#                D2       E3       F#2
   Please don't take pity on me

   F#                D2       E3
   Please don't take pity on me        IM NOT SURE IF THAT IS
                                    RIGHT BUT ITS THE BEST I
                                     CAN DO FOR NOW...

   My life has been a nightmare

   My soul is fractured to the bone

   So if I must be lonely

   I think I'd rather be alone...


   D         E2      F#   F# E A  F#   F#  E A
   You cannot save me

   D              E2           F#   F# E A  F#   F#  E A
   You can't even save yourself

   D         E2      F#   F# E A  F#   F# E A
   I cannot save you

   D         E2            F#   F#  E A
   I can't even save myself

  F#   F#  E  A  F#   F#  E A
   Save yourself

   F#    F#  E A    F#
   So just save yourself


GOOD LUCK

SEND ANY COMMENTS TO DAVE BLOOM   [email protected]


Текст, аккорды и табулатура для песни "Save Yourself", исполняет "Stabbing Westward".
Используемые в песне аккорды можно найти в разделе Как брать аккорды. Аккорды для шестиструнной гитары. Другие песни можно найти на нашем сайте, воспользовавшись алфавитным указателем вверху страницы.


Слушать онлайн Save Yourself


Stabbing WestwardSave Yourself на Яндекс.Музыке


 
Ошибка в тексте? Выделите ошибку и нажмите Ctrl+Enter