SR-71,Politcally Correct.
Tabbed by Tabbed by Mack, [email protected]
  
This is kinda two guitars put together but none of those
solos, I'm not That good yet...*sniff*
remember if you're saving this view it with courier or
any other font that works and in size ten, thats
what i use anyways

Intro Part 1
e|----------------------------------------|
b|----------------------------------------|
g|-11-11-11-11--6-6-6-6--8-8-8-8--4-4-4-4-|
d|-11-11-11-11--6-6-6-6--8-8-8-8--4-4-4-4-|
a|-9--9--9--9---4-4-4-4--6-6-6-6--2-2-2-2-|
e|----------------------------------------|

Intro Part 2
e|-----------------------------------------------------|
b|--------------------------------------4--------------|
g|-11-11-11-11--6-6-6-6--8-8-8-8------4---4------------|
d|-11-11-11-11--6-6-6-6--8-8-8-8----4-------4--4-4-4-4-|
a|-9--9--9--9---4-4-4-4--6-6-6-6--2------------2-2-2-2-|
e|-----------------------------------------------------|
                                                                                         
Bridge
e|-x-------------------x-------------------|
b|-x-------------------x-------------------|
g|-x----------6-6-6-6--x--8-8-8-8--4-4-4-4-|
d|-x-4-4-4-4--6-6-6-6--x--8-8-8-8--4-4-4-4-|
a|-x-4-4-4-4--4-4-4-4--x--6-6-6-6--2-2-2-2-|
e|-x-2-2-2-2-----------x-------------------|

Verse Part 1
e|--------------------------------------------|
b|--------------------------------------------|
g|------------6----------8--------4-x-4-x-4---|
d|-4----------6----------8--------4-x-4-x-4---|
a|-4----------4----------6--------2-x-2-x-2---|
e|-2------------------------------------------|

Verse Part 2
e|---------------------------------------------------------|
b|----------------------------------4----------------------|
g|----------6-6-6-6--8-8-8-8------4---4--------------------|
d|-4-4-4-4--6-6-6-6--8-8-8-8----4-------4--4-4-4-4-6-6-6-6-|
a|-4-4-4-4--4-4-4-4--6-6-6-6--2------------2-2-2-2-4-4-4-4-|
e|-2-2-2-2-------------------------------------------------|
                                           
Chorus
e|----------------------------------------|
b|----------------------------------------|
g|-11-11-11-11--6-6-6-6--8-8-8-8--4-4-4-4-|
d|-11-11-11-11--6-6-6-6--8-8-8-8--4-4-4-4-|
a|-9--9--9--9---4-4-4-4--6-6-6-6--2-2-2-2-|
e|----------------------------------------|

Fill
e|-------------------|
b|-------------------|
g|-------------------|
d|-9-9-9-9--8-8--6-6-|
a|-9-9-9-9--8-8--6-6-|
e|-7-7-7-7--6-6--4-4-|

Pro-Chorus
e|-------------------------------------------------------------|
b|--------------------------------------4----------------------|
g|-11-11-11-11--6-6-6-6--8-8-8-8------4---4--------------------|
d|-11-11-11-11--6-6-6-6--8-8-8-8----4-------4--4-4-4-4-6-6-6-6-|
a|-9--9--9--9---4-4-4-4--6-6-6-6--2------------2-2-2-2-4-4-4-4-|
e|-------------------------------------------------------------|

Interlude Part 1
e|----------------------------------------------------------------------------|
b|----------------------------------------------------------------------------|
g|----------6-6-6-6--8-8-8-8--------------------------------------------------|
d|-4-4-4-4--6-6-6-6--8-8-8-8--9-9-9-9--11-11-11-11--8-8-8-8--9-9-9-9--8-8-6-6-|
a|-4-4-4-4--4-4-4-4--6-6-6-6--9-9-9-9--11-11-11-11--8-8-8-8--9-9-9-9--8-8-6-6-|
e|-2-2-2-2--------------------7-7-7-7--9--9--9--9---6-6-6-6--7-7-7-7--6-6-4-4-|

Interlude Part 2
e|-------------------------------------------------------------------------|
b|-------------------------------------------------------------------------|
g|----------6-6-6-6--8-8-8-8-----------------------------------------------|
d|-4-4-4-4--6-6-6-6--8-8-8-8--9-9-9-9--11-11-11-11--8-8-8-8--9-9-9-9--8--6-|
a|-4-4-4-4--4-4-4-4--6-6-6-6--9-9-9-9--11-11-11-11--8-8-8-8--9-9-9-9--8--6-|
e|-2-2-2-2--------------------7-7-7-7--9--9--9--9---6-6-6-6--7-7-7-7--6--4-|

Interlude Part 3
e|----------------------------------------------------------------------------|
b|----------------------------------------------------------------------------|
g|----------6-6-6-6--8-8-8-8--------------------------------------------------|
d|-4-4-4-4--6-6-6-6--8-8-8-8--9-9-9-9--11-11-11-11--8-8-8-8--9-9-9-9--8-8-8-8-|
a|-4-4-4-4--4-4-4-4--6-6-6-6--9-9-9-9--11-11-11-11--8-8-8-8--9-9-9-9--8-8-8-8-|
e|-2-2-2-2--------------------7-7-7-7--9--9--9--9---6-6-6-6--7-7-7-7--6-6-6-6-|

Interlude Part 4
e|------------------------------------|
b|------------------------------------|
g|----------6-6------8-8-8-8--4-4-4-4-|
d|-4-4------6-6------8-8-8-8--4-4-4-4-|
a|-4-4------4-4------6-6-6-6--2-2-2-2-|
e|-2-2--------------------------------|

Interlude Part 5
e|----------------------------------------------------------------|
b|----------------------------------4-----------4-----------------|
g|----------6-6------8-8-8-8------4---4-------4---4----4----------|
d|-4-4------6-6------8-8-8-8----4-------4---4-------4--4-let ring-|
a|-4-4------4-4------6-6-6-6--2-----------2------------2----------|
e|-2-2------------------------------------------------------------|

Ending
e|-------------------------------------------------------------------------|
b|-------------------------------------------------------------------------|
g|----------6-6-6-6--8-8-8-8-----------------------------------------------|
d|-4-4-4-4--6-6-6-6--8-8-8-8--9-9-9-9--11-11-11-11--8-8-8-8--9-9-9-9--8--6-|
a|-4-4-4-4--4-4-4-4--6-6-6-6--9-9-9-9--11-11-11-11--8-8-8-8--9-9-9-9--8--6-|
e|-2-2-2-2--------------------7-7-7-7--9--9--9--9---6-6-6-6--7-7-7-7--6--4-|

Breakdown
Intro Part 1      x2
Intro Part 2      x1
Bridge            x2
Verse Part 1      x2
Verse Part 2      x1
Chorus            x2
Fill              x1
Verse Part 1      x2
Verse Part 2      x1
Chorus            x2      
Pro-Chorus        x1
Interlude Part 1  x1
Interlude Part 2  x1
Interlude Part 1  x1
Interlude Part 3  x1
Interlude Part 4  x1
Interlude Part 5  x1
Chorus            x4
Ending            x1


That's it.  Easy and fun to play.  Hope I didn't make it too confusing.
Questions?  Comments?  Suggestions?
[email protected] 

:: Ultimate Guitar Archive :: 
http://www.ultimate-guitar.com 





Текст, аккорды и табулатура для песни "Politically Correct", исполняет "Sr-71".
Используемые в песне аккорды можно найти в разделе Как брать аккорды. Аккорды для шестиструнной гитары. Другие песни можно найти на нашем сайте, воспользовавшись алфавитным указателем вверху страницы.


Слушать онлайн Politically Correct


SR-71Politically Correct на Яндекс.Музыке


 
Ошибка в тексте? Выделите ошибку и нажмите Ctrl+Enter