tune guitars down half step

    G          E         C         A somethin?         D
I----3----I----3----I----3----I----0----I--------------2--|I
I----3----I----3----I----3----I----3----I--------------3--|I
I----0----I----0----I----0----I----0----I--------------2--|I
I----0----I----2----I----2----I----2----I--------------0--|I
I----2----I----2----I----3----I----0----I-----------------|I
I----3----I----0----I----x----I----x----I-----------------|I

They kinda do just some regular strokes on the strings with these cords...and the rhythm


G  				E
once insided the door I check my face in the mirror
C                            A
as I look past this lonely minute
G			      E
is this the ride worth waiting for I'm scared to
C                   A
death that now i've missed it
G			   E
she was not the only stone skipped across this gravel road
C                         A
leading down the path of loneliness
G			 E
so I'll fly from this hate and pray my soul the lord will take me
C                               A
to a place through time and indifference

A        C              G
I wanna know how do you feel
A         C               D
I wanna know if this was real
             C            G
so tell me what would you say
             A          C
if you could make this pain go away

she plans her future lookin bright ahead
leaves me in the past
I can't stand to hang out with my codependent friends
my patience is fading fast
but every sign in every song is tellin me that I don't belong
but its ok to feel scared
cause one day soon I'll find myself and realize that noone else
will make me feel stupid

I wanna know how do you feel
I wanna know if this was real
so tell me what would you say
if you could make this pain go away

-----------------------------------------------------|
-----------------------------------------------------|
-----------------------------------------------------|
-------9-9/10-9------9-9/10--12----9-9/10------------|
-------------------10-----------10----------10-------|
-----------------------------------------------------|

---------------------------------------------------------------|
---------------------------------------------12--12-13-12------|
--------------------------------12--12-14----------------------|
----------------------9--12-14---------------------------------|
---------10--10-12---------------------------------------------|
-10 12---------------------------------------------------------|

--------------------------------------------------------|
--12h13-12-12/14-13-12-13-12----------------------------|
-----------------------------------------------12-------|
---------------------------------------12-14-12--14-----|
--------------------------------------------------------|
--------------------------------------------------------|

---------------------------------------------------15------------------|
--------------------------12^13-12h13h12-13-----12h13h12---------------|
--------12------12--12-------------------------------------------------|
12-14-12--14-12--12----------------------------------------------------|
-----------------------------------------------------------------------|
-----------------------------------------------------------------------|


theres this old man down in fellspoint
always hangin around
tellin me son the pendulum swings both ways
but for you it will always swing down

I wanna know how do you feel
I wanna know if this was real
so tell me what would you say
if you could make this pain go away

and then it does their little ending thing, that everyone likes to do

well this is my tab of a cool song... so if you don't like it... I really don't 
piss off if you wanna try sendin in suggestions for makin this thing better...


Текст, аккорды и табулатура для песни "Go Away", исполняет "Sr-71".
Используемые в песне аккорды можно найти в разделе Как брать аккорды. Аккорды для шестиструнной гитары. Другие песни можно найти на нашем сайте, воспользовавшись алфавитным указателем вверху страницы.


Слушать онлайн Go Away


SR-71Go Away на Яндекс.Музыке


 
Ошибка в тексте? Выделите ошибку и нажмите Ctrl+Enter