Where ever Mark uses that sick effect pedal u can use just
a regular wah pedal with distortion. It's close enough.

Tabbed By: Mike

~=let ring
=slide down
/=slide up


Intro: guitar 1              | *play only after 2nd time
                (play 2x)    | *let ring into the verse
e----------------------------|-----------------|
B----------------------------|-----------------|
G----------------------------|-----------------|
D---888888444444111111111111-|-/8-8~~---------|
A---888888444444111111111111-|-/8-8~~---------|
D---888888444444111111111111-|-/8-8~~---------|

       guitar 2 - with effect pedal
e--------------------------------------------------|
B--------------------------------------------------|
G--------------------------------------------------|
D--------------------------------------------------|
A---------------------------------9~----6~----6~---|
D---8~----4~----1~----1~----8~---------------------|

Verse 1: guitar 1
	comes in at 0:27

e---------------|
B---------------|
G---------------|
D----888~~-----|
A----888~~-----|
D----888~~-----|

Chorus: guitar 1
         play 4x
e----------------------------|---|
B----------------------------|---|
G----------------------------|---|
D---888888444444111111111111-|-/-|
A---888888444444111111111111-|-/-|
D---888888444444111111111111-|-/-|

	guitar 2 - with pedal
	 play 2x
e--------------------------------------------------|
B--------------------------------------------------|
G--------------------------------------------------|
D--------------------------------------------------|
A---------------------------------9~----6~----6~---|
D---8~----4~----1~----1~----8~---------------------|


Verse 2:


  1:08 |  1:21  | 1:28   |
e------|--------|--------|
B------|--------|--------|
G------|--------|--------|
D--8~-|-888~--|-118~--|
A--8~-|-888~--|-118~--|
D--8~-|-888~--|-118~--|


     PLAY CHORUS AGAIN

Bridge:

PART 1- both guitars
e--------------------------------|
B--------------------------------|
G--4~------------4~--------------|
D--4~--1---3-4--4~--1--3--4--6--|
A--2~--1---3-4--2~--1--3--4--6--|
D------1---3-4------1--3--4--6--|

e-------------------------------------------|
B-------------------------------------------|
G--4~------------4-44-44-44-4---------------|
D--4~--1---3-4--4-44-44-44-4-6-66-66-66-6--|
A--2~--1---3-4--2-22-22-22-2-6-66-66-66-6--|
D------1---3-4---------------6-66-66-66-6--|


PART 2- guitar 1

   2:29
e---------|
B---------|
G---------|
D--8~----|
A--8~----|
D--8~----|

   guitar 2 - play 4x for total of 16

   2:29
e------------------------------|
B------------------------------|
G------------------------------|
D------8-----8-----8-----8-----|
A----8-----8-----8-----8-------|
D--8-----8-----8-----8---------|


	PLAY CHORUS AGAIN

Outro: both guitars

  play 3x
e----------------------------------------------|
B----------------------------------------------|
G----------------------------------------------|
D--8888-4444-111111111111------------------|
A--8888-4444-111111111111------------------|
D--8888-4444-111111111111------------------|

 then on 4th time


e----------------|--------|
B----------------|--------|
G----------------|--------|
D--8888-4444-|-1~~~---|
A--8888-4444-|-1~~~---|
D--8888-4444-|-1~~~---|


This is another cool sr-71 song so have fun wit it


Текст, аккорды и табулатура для песни "Broken Handed", исполняет "Sr-71".
Используемые в песне аккорды можно найти в разделе Как брать аккорды. Аккорды для шестиструнной гитары. Другие песни можно найти на нашем сайте, воспользовавшись алфавитным указателем вверху страницы.


 
Ошибка в тексте? Выделите ошибку и нажмите Ctrl+Enter