----------------------------------------------------------------------
                    [Spunge] - Jump On Demand
----------------------------------------------------------------------

I've tabbed 2 other [Spunge] songs, here's my 3rd. they rule.
It's the 1st single from the new album, Roots is the new one.
Order's at the bottom.

Intro - not sure about this
Guitar 1
e|-------------------------------------------------------------------|
B|-------------------------------------------------------------------|
G|-------------------------------------------------------------------|
D|-------------------------------------------------------------------|
A|-13-12-10-8-13-12-10-8-13-12-10-8--------10--------12--------------|
E|-----------------------------------11-11----11--13----13-----------|
 PM                                  .....    ..  ..    ..

Then Guitar 2 comes in with..
e|-------------------------------------------------------------------|
B|-------------------------------------------------------------------|
G|---------------------------------------------------------9---------|
D|-222-666-777-999-222-666-777-999-222-666-777-999---------9---------|
A|-222-666-777-999-222-666-777-999-222-666-777-999---------7---------|
E|-000-444-555-777-000-444-555-777-000-444-555-777-------------------|
 PM..  ..  ..  ..  ..  ..  ..  ..  ..  ..  ..  .. 

Verse - Guitar 1 - ska rhythm - funny effects
e|-5--5--5--5--2--2--4--4--------------------------------------------|
B|-5--5--5--5--3--3--5--5--------------------------------------------|
G|-6--6--6--6--2--2--4--4--------------------------------------------|
D|-------------------------------------------------------------------|
A|-------------------------------------------------------------------|
E|-------------------------------------------------------------------|

Chorus
e|-------------------------------------------------------------------|
B|-------------------------------------------------------------------|
G|---------777-999---------777-999-----------------------------------|
D|-777-777-777-999-777-777-777-999-----------------------------------|
A|-777-777-555-777-777-777-555-777-----------------------------------|
E|-555-555---------555-555-------------------------------------------|

Pre-Verse                                 On 2nd time only |
e|---------------------------------------------------------|---------|
B|---------------------------------------------------------V---------|
G|------------77-66-44-9------------77-66-44-9---End Chord-----------|
D|-77-66-44-2-77-66-44-9-77-66-44-2-77-66-44-9-------------7---------|
A|-77-66-44-2-55-44-22-7-77-66-44-2-55-44-22-7-------------7---------|
E|-55-44-22-0------------55-44-22-0------------------------5---------|
 PM........   .........  .........  ........

Solo - Guitar 1, Guitar 2 does backing
e|-------------------------------------------------------------------|
B|-------------------------------------------------------------------|
G|---6-7-9-7-6-7-6h7p6h7p6-7-6--------------------6------------------|
D|-7---------------------------7----------7---7h9--------------------|
A|----------------------------------9-7h9---9------------------------|
E|-------------------------------------------------------------------|

Solo (continued)
e|-------------------------------------------------------------------|
B|-----------7------------------------------7------------------------|
G|-6h7-6h7-9---9-7-6h7-6-------6-7-99999999---9-7-6------------------|
D|-----------------------9-7-9----------------------9-7-9-7----------|
A|-------------------------------------------------------------------|
E|-------------------------------------------------------------------|

Outro - Slow, if you listen
e|-------------------------------------------------------------------|
B|-------------------------------------------------------------------|
G|-----------------777-666-444-999-----------------------------------|
D|-777-666-444-222-777-666-444-999-----------------------------------|
A|-777-666-444-222-555-444-222-777-----------------------------------|
E|-555-444-222-000---------------------------------------------------|
 PM..  ..  ..  ..  ..  ..  ..  ..

End
e|-------------------------------------------------------------------|
B|-------------------------------------------------------------------|
G|-------------------------------------------------------------------|
D|-7~~~~~-7----------------------------------------------------------|
A|-7~~~~~-7----------------------------------------------------------|
E|-5~~~~~-5----------------------------------------------------------|

Order: 
Intro - Guitar 1 x1
Intro - Guitar 1 & 2 x1
Verse x8
Chorus x2
Pre-Verse x2
Verse x8
Chorus x2
Pre-Verse x2
Solo - Guitar 1 x1 Verse (Backing) - Guitar 2 x4
Chorus x2
Outro x2
Chorus x4
End x1

By Jack
ok, thanks for looking at my tab. rate it good :-)
email: [email protected]


Текст, аккорды и табулатура для песни "Jump On Demand", исполняет "Spunge".
Используемые в песне аккорды можно найти в разделе Как брать аккорды. Аккорды для шестиструнной гитары. Другие песни можно найти на нашем сайте, воспользовавшись алфавитным указателем вверху страницы.


 
Ошибка в тексте? Выделите ошибку и нажмите Ctrl+Enter