[Spunge]-Get Along 
Tabbed by Merlin Blencowe

Intro plays twice with the presence turned up,

--8---8-----8----8-----6--6------8---8-------
-10--10-----8----8-----6--6------8---8-------
-10--10-----9----9-----7--7------9---9-------
-10--10----10---10-----8--8-----10--10-etc---
---------------------------------------------
---------------------------------------------
  F	   C	       A#        C

Then the cool solo;
-----------------------------------------
-----------------------------------------
-----------------------------------------
-10--10--10-10--10-10--10bend-/-14--10--
-----------------------------------------
-----------------------------------------

------------------------------------------------------
------------------------------------------------------
------------------------------------------------------
--------------10-h-12-10----12-10-12--14-12-h-14-/-15-
---10-h-12--------------------------------------------
------------------------------------------------------

------------------------------------------------------------------------
------------------------------------------------------------------------
------------------------------------------------------------------------
14-h-15-/-17-15-14--15-14-12---10bend-/-14--10-------------10-h-12--10-
--------------------------------------------------10-h-12---------------
------------------------------------------------------------------------

The back to the first chord sequence for the verse but with less presence and
more distortion. Then you get the same solo, then a verse again, then the lead
plays this riff 4 times, with the rhythm playing the chords for support; (this
type of riff is very popular in Spunge songs) the the rhythm cuts and the riff
continues 4 times.
-------------------------------------------------------
---------10------------8---------6----------8--------
-----10-----10-----9----9------7---7-----9----9-etc
-10-------------10---------8---------10--------------
--------------------------------------------------------
-------------------------------------------------------
  F                      C              A#          C

Then the same chords as before but on the lower strings (ie power chords)
and with overdrive, as in:
------------------------------------------
------------------------------------------
------------------------------------------
-10----10----8-----10---------------------
--8----10----8-----10---etc---------------
--8----8-----6-----8----------------------
  F    C     A#    C

Then the lead plays a variation on the solo which goes roughly like this,
though I know it's not a perfect tab;
--------------------------------------------------------------------------
--------------------------------------------------------------------------
--------------------------------------------------------------------------
-10--10--10-10--10-10--10bend-/-14--10------------10-h-12-10----12-10-12-
-------------------------------------------10-h-12------------------------
--------------------------------------------------------------------------

-------------------------------------------------------------
-------------------------------------------------------------
-------------------------------------------------------------
-14--12-10-12-10--------------------------------------------
-----------------------12-10-12--------------------10-12-10--
-----------------------------------12-10-8-10-12-------------

Then up the tempo with the power chords until the end.


Текст, аккорды и табулатура для песни "Get Along", исполняет "Spunge".
Используемые в песне аккорды можно найти в разделе Как брать аккорды. Аккорды для шестиструнной гитары. Другие песни можно найти на нашем сайте, воспользовавшись алфавитным указателем вверху страницы.


 
Ошибка в тексте? Выделите ошибку и нажмите Ctrl+Enter