[Spunge]  -Ego
Tabbed by Merlin Blencowe

INTRO
-----2---------------7-----------------9-------------------7-------
---------2----------------7-----------------9------------------7---
-------------------------------------------------------------------
-4----------4-/-9------------9-/-11------------11--9--------------
-------------------------------------------------------------------
-------------------------------------------------------------------

-----2---------------7-----------------9----------------7-----------
---------2----------------7-----------------9---------------7-----7-
---------------------------------------------------------------8----
-4----------4-/-9------------9-/-11------------11-------------------
--------------------------------------------------------------------
--------------------------------------------------------------------

CHORDS
----------------
--2-----4-----6-
--3-----4-----6-
--4-----4-----6-
--4-----2-----4-
----------------
  F#    B    C# 


F#	    B
Hey Kate, you and me should make a date
C#                       B           F#
To have a little lovin' in the back row.
F#                    B             
Tell your mom you're gonna have a lotta fun
C#                     B        F#
But don't tell Daddy that's a no-no.
F#                         B
Hope it won't offend but maybe you could bring a friend
C#                  B           F#
We could have more fun with three,
F#                    B
If she's up for some you could even bring your mum
C#                         B               F#
She's kinda cute and she's got a thing for me.
F#                          B
All you ever think about is me me me
C#          B
And I can understand it.
F#                B
My ego's got so big lately
   C#
I swear that you could see it standing on another planet!

F#            B                 C#
I would have thought you'd have noticed
C#             F#
My ego's too big!
F#             B              C#
Yeah I'm your host with the mostest
C#            F#
My ego's too big!
F#             B          C#  
Don't tell me you haven't noticed
C#            F#
My ego's too big!
F#            B            C#
Hi I'm your host with the mostest
C#            F#
My ego's too big!


Текст, аккорды и табулатура для песни "Ego", исполняет "Spunge".
Используемые в песне аккорды можно найти в разделе Как брать аккорды. Аккорды для шестиструнной гитары. Другие песни можно найти на нашем сайте, воспользовавшись алфавитным указателем вверху страницы.


 
Ошибка в тексте? Выделите ошибку и нажмите Ctrl+Enter