Spunge - Dotted Line
Submitted By: Dan Bodman
EMail: [email protected]


Tuning: Standard (E A D G B E)

I've seen this tabbed so many times and its totally wrong, 
the solos aren't in here but listen and play along with 
the CD to get it perfect!

Intro

E|-------------------------------------------------------------||
B|-------------------------------------------------------------||
G|--2-2-2---------2-2-2---------------2-2-2---------2-2-2------||
D|--2-2-2--3-3-3--2-2-2---------------2-2-2--3-3-3--2-2-2--3---||
A|--0-0-0--3-3-3--0-0-0--3-2-3-2------0-0-0--3-3-3--0-0-0--3---||
E|---------1-1-1-----------------------------1-1-1---------1---||

2nd Part Intro 


E|-------------------------------------||
B|-------------------------------------||
G|--2-2-2---------2-2-2----------------|| Repeat 
D|--2-2-2--3-3-3--2-2-2----------------||   x4
A|--0-0-0--3-3-3--0-0-0--3-2-1^--------||
E|---------1-1-1-----------------------||         

E|---------------||
B|---------------||
G|---2-let ring--||  Play this chord after repeating 2nd intro
D|---2-----------||
A|---0-----------||
E|---------------||

Verse

E|---x5-x5-x5-x5---x8--x8----x3---x4------||
B|---x5-x5-x5-x5---x8--x8----x3---x4------||
G|---x6-x6-x6-x6---x9--x9----x4---x5------||  Repeat x4    Use ska up-strokes 
D|---x7-x7-x7-x7---x10-x10---x5---x6------||               with soft distortion
A|----------------------------------------||
E|----------------------------------------||

Chorus Use distortion

E|----------------------------------------||
B|----------------------------------------||
G|-----------------7----------------------||
D|--7----5----3----7-----2--0--2--7-------||
A|--7----5----3----5-----0--2--3--5-------||
E|--5----3----1---------------------------||

Outro Chorus

E|----------------||  Listen to the cd to      
B|----------------||  get the right strumming 
G|----------7-----||  pattern
D|---7------7-----||
A|---7------5-----||
E|---5------------||

E|------------|| 
B|------------||
G|---x x7-----||   Do this bit towards the end of the fast ska bit
D|---x-x7-----||   Repeat x4
A|---x-x5-----||
E|------------||

repeat both those parts x2

Solo

I dont know it, its all A maj pentatonic scale
so improvise!!!

Repeat Verse

Repeat Chorus

Repeat Chorus Outro x2


E|-------------------------------------||
B|-------------------------------------||
G|----2222----2222---------------------||
D|--0-2222--0-2222----5-4-2-5----------||
A|--0-0000--0-0000----5-4-2-5----------||
E|-------------------------------------||


E|---------------------------------------------||
B|---------------------------------------------||
G|----2222----2222-----------------------------||
D|--0-2222--0-2222-----------------------------||
A|--0-0000--0-0000----2h3-2h3-2h3-2h3-2-3-2----||
E|---------------------------------------------||

another solo, its A maj pentatonic so improvise a bit more!

Repeat Verse but play faster x5

Repeat Chorus x1

Repeat both parts of outro chorus x2Its a chronic song, so go and play it!


Текст, аккорды и табулатура для песни "Dotted Line", исполняет "Spunge".
Используемые в песне аккорды можно найти в разделе Как брать аккорды. Аккорды для шестиструнной гитары. Другие песни можно найти на нашем сайте, воспользовавшись алфавитным указателем вверху страницы.


 
Ошибка в тексте? Выделите ошибку и нажмите Ctrl+Enter