Intro is on bass, but you could play it on lead if you have no life
and don't know any bass players...: )
I had to watch Jarvis live to try and work this one out, and I still
don't think it's right.

Play through 4 times; 
G----------------------------------------------------------------
D----------------------------------------------------------------
A-----5---------5-h-7--7--5-----5--5--------7--7-etc-------------
E--5-----5-h-7----------------3--------5--5----------------------

Fourth time round the rhythm comes in with the following (Yeah I know the
pattern ain't right, do it yourself, this is just a chordal guide! Jeez...)

Verse;
---------------------------------------------------------------
-7--7--7--7----------------------------------------------------
-7--7--7--7---6--6-/-6--6--------------------------------------
-7--7--7--7---5--5-/-7--7--------------------------------------
-5--5--5--5---5--5-/-7--7--------------------------------------
--------------3--3-/-5--5--------------------------------------
 D	      G      A
That plays for all the verses.
 Then hit the overdrive for the with the following:

Chorus;
-----------------------------------------------------------
-----------------------------------------------------------
-----------------------------4-4-4-4--/--6-6-6-6-----------
-9-9-9-9----4-4-4-4--/--5-5-5-5--/--7-7-7-7---------------
-9-9-9-9----4-4-4-4--/--5-5-5-5--/--7-7-7-7---------------
-7-7-7-7----2-2-2-2--/--3-3-3-3--/--5-5-5-5---------------
 Bm	     F#m	 G	    A

A series of Verses and Chorus's again,
all goes quiet except for drums, then with overdrive the rhythm;

-------------------------------------------------------
-------------------------------------------------------
-----------------------------4-4-4-4--/--6-6-6-6-------
-12-12-12-12----4-4-4-4--/--5-5-5-5--/--7-7-7-7-------
-12-12-12-12----4-4-4-4--/--5-5-5-5--/--7-7-7-7-------
-10-10-10-10----2-2-2-2--/--3-3-3-3--/--5-5-5-5-------
  D              F#	     G	         A

Verse & Chrous again, which continues to the end,
finishing with the bass the same as the intro.


Текст, аккорды и табулатура для песни "Break Up", исполняет "Spunge".
Используемые в песне аккорды можно найти в разделе Как брать аккорды. Аккорды для шестиструнной гитары. Другие песни можно найти на нашем сайте, воспользовавшись алфавитным указателем вверху страницы.


 
Ошибка в тексте? Выделите ошибку и нажмите Ctrl+Enter