Am                       Asus2 Am
Целым был и был разбитым,
                         Asus2 Am 
Был  зивым и был убитым. 
                          Asus2 Am
Чистой был водой,был ядом,
                    
Был зеленым виноградом...
1Припев:
G
Спатъ лозился рано утром,
F                      Am     Asus2  Am
Вечерами бсе звонил кому-то...
2Припев:
G             E     G            E
Ноч чернеет впереди,свет гаси и приходи...x2p

Я думаю,что далее вы поймете сами...

Вот вступление(оно играется на фортепиано,но я подобрал для гитары):
E-----------------------------------------
H-----------------------------------------
G-----------------------------------------
D|-7--10-----9--7---7------7--9--10---10-----9--7---7-
A|-0--------------------------------------------------
E-----------------------------------------     
Solo:
E------------------------------------------|
H------------------------------------------|
G|--5---4-5--4-5--7--5-(4)---4-------------------------|
D--------------6---7--6-7--6-7--9--7--6----|
A------------------------------------------|
E------------------------------------------|

E------------------------------------------|
H------------------------------------------|
G|--5---4-5--4-5--7--5-(4)---4-------------------------|
D--------------6---7--6-7--6-7--9--7--6----|
A------------------------------------------|
E------------------------------------------|


E------------------------------------------|
H------------------------------------------|
G-----7--5-(4)---4-------------------------|
D|--9---8-9--8-9-----------5----7--6-7----7--6-7-------|
A--------------------------8---------8-7---|
E------------------------------------------|



Текст, аккорды и табулатура для песни "Приходи", исполняет "Сплин".
Используемые в песне аккорды можно найти в разделе Как брать аккорды. Аккорды для шестиструнной гитары. Другие песни можно найти на нашем сайте, воспользовавшись алфавитным указателем вверху страницы.


 
Ошибка в тексте? Выделите ошибку и нажмите Ctrl+Enter