Вступление

В две гитары
guitar 1
Обыгрывается следующее
  
1|-0-----------1-|- Чтобы подобрать ритм послушайте песню
2|-1-----------1-|
3|-2-----------2-|
4|-3-----------3-|
5----|
6----|

Guitar 2
1-0==--------------|
2|--1---------------1==------1-|
3|--2------------------------2-|
4|--3------------------------3-|
5|--3------------------------3-|
6------------------|


Куплет 1

   F     C        Dm     C     A#
1|-6--5-----------3--1-------------------------|
2|-6==---5==---3==-------5==---5--3==----5--3==|
3|-5==---5==-------------5==-------------------|
4|-------5==-------------5==-------------------|
5|-------3==-------------3==-------------------|
6----------------------------------|

    F                               C         Dm
Километры превратятся в прошествие лет в киноленты,
                           C        A#
Что лежат на монтажном столе, континенты
                  F
Будут им рукоплескать.


   F     C        Dm      C      A#
1|-6--5-----------3--1--------------------|
2|-6==---5==---3==--------5==------5--3==-|
3|-5==---5==--------------5==----3--------|
4|-------5==--------------5==-------------|
5|-------3==--------------3==-------------|
6-----------------------------|

      F                            C          Dm 
До восхода, лишь земля обернется опять, кислорода
                         C            A#
Хватит всем кто умеет дышать, год от года

A#            F    
Остаемся зимовать


припев
   F                   A#                   
1|-1-1-1-11-1-11-3-1-0--------------------0-|
2----------3-3-3-33-3-33-1-3----|
3-------------------------------|
4-------------------------------|
5-------------------------------|
6-------------------------------|


   Dm                  A#            G  A#     G G
1|-1-1-1-11-1-11-3-1-0---------------3=-1=-1---3-3-|
2----------3-3-3-33-3-33---------3-----|
3--------------------------------------|
4--------------------------------------|
5--------------------------------------|
6--------------------------------------|

A#            Dm  
Остаемся зимовать
A#            G  
Остаемся зимовать
        A#           G
Вода замерзла - перебьемся

    F                                  C           Dm
И с приветом и спасибо всем тем кто мигал дальним светом
                      C        A#
Принимая ответный сигнал этим летом


Куплет 2
Немного отличается
   F                                  C          
1|-6--5--------------6--5==---------|-0==--------|
2|-6==---6---6----6----------6---6--|-----1---1--|
3|-5==-----5-------------------5----|-------0----|
4------------------------|
5------------------------|
6------------------------|

  Dm
|--------3--1==------------3--1==---------|
|-----3---------3---3---3----------3---3--|
|--2--------------2------------------2----|
------------------------------|
------------------------------|
------------------------------|
   C             A#
1|-0==-------------------------------| 
2|-----1---1--|--5--3==--------------------------| 
3|-------0-----3------5--3----3---3--| 
4-----3-------------3----|
5------------------------|
6------------------------|

Насчет последнего отрезка неуверен
но звучит неплохо!
Послушайте, прочувствуйтесь

    F                                  C           Dm
И с приветом и спасибо всем тем кто мигал дальним светом
                      C        A#
Принимая ответный сигнал этим летом
                 F
И так любит рисковать.

   F                                  C          
1|-6--5--------------6--5==---------|-0==--------|
2|-6==---6---6----6----------6---6--|-----1---1--|
3|-5==-----5-------------------5----|-------0----|
4------------------------|
5------------------------|
6------------------------|

  Dm
|--------3--1==------------3--1==---------|
|-----3---------3---3---3----------3---3--|
|--2--------------2------------------2----|
------------------------------|
------------------------------|
------------------------------|
   C             A#
1|-0==-------------------------------| 
2|-----1---1--|--5--3==--------------------------| 
3|-------0-----3------5--3----3---3--| 
4-----3-------------3----|
5------------------------|
6------------------------|

Насчет последнего отрезка неуверен
но звучит неплохо!
Послушайте, прочувствуйтесь

      F                            C          Dm 
Ртуть упала, и листва за окном шелестеть перестала,
                         C        A#
И вдвоем под одним шерстяным одеялом

A#            F
Остаемся зимовать

припев
   F                   A#                   
1|-1-1-1-11-1-11-3-1-0--------------------0-|
2----------3-3-3-33-3-33-1-3----|
3-------------------------------|
4-------------------------------|
5-------------------------------|
6-------------------------------|


   Dm                  A#            G  A#     G G
1|-1-1-1-11-1-11-3-1-0---------------3=-1=-1---3-3-|
2----------3-3-3-33-3-33---------3-----|
3--------------------------------------|
4--------------------------------------|
5--------------------------------------|
6--------------------------------------|

A#            Dm  
Остаемся зимовать
A#            G  
Остаемся зимовать
        A#           G
Вода замерзла - перебьемся


И тут небольшой проигрыш
1|-3--1==------1--0--|
2|-3-----------------|
3|-2--------2--------|
4--------|
5--------|
6--------|

1|-3--1==------1--0--|
2|-3-----------------|
3|-2--------2--------|
4--------|
5--------|
6--------|

3 куплет без проигрыша
   C                             G       Am   
Океанам, с головой уходящим в песок караваном
                            G            F
Никогда не прочесть этих строк - даже странно
                  C
Я не знаю что сказать.

      C                               G       Am
Очень скоро мы исчезнем с экранов цветных мониторов,
                     G         F   
Из подъезда увозят кого-то на скорой.

F             C
Остаемся рисковать

Припев(вниз на тон)
   C                   F    
1-------------------------------|
2|-1-1-1-11-1-11-3-1-0--------------------0-|
3----------2-2-2-22-2-22-0-2----|
4-------------------------------|
5-------------------------------|
6-------------------------------|
   Am                  F             D   F       D  D
1-------------------------------------------12| 
2|-1-1-1-11-1-11-3-1-0---------------3==-1==-1---3--3-----| 
3----------2-2-2-22-2-22-----------2----------| 
4---------------------------------------------| 
5---------------------------------------------| 
6---------------------------------------------|


Смачно дернуть надо стркнк на 12 ладу


F             Am
Остаемся рисковать
F             D
Остаемся рисковать
 
       F            D 
Вода замерзла - перебьемся

    Am
1-----|
2|--3--1-------0--|
3|--2-------------|
4|--2-------2-----|
5-----|
6-----|
        Am
... зимовать
Зимовать
Зимовать


И в конце проигрышь для флейты

    Am                C
1------------|
2|--10--10--10-10--12-13-|
3------------|
4------------|
5------------|
6------------|
                       не спать!x5

Ну чтож, приятного вам "проигрывания". Если что не нравится - исправьте.


Текст, аккорды и табулатура для песни "Остаемся зимовать", исполняет "Сплин".
Используемые в песне аккорды можно найти в разделе Как брать аккорды. Аккорды для шестиструнной гитары. Другие песни можно найти на нашем сайте, воспользовавшись алфавитным указателем вверху страницы.


 
Ошибка в тексте? Выделите ошибку и нажмите Ctrl+Enter