Spineshank
Smothered
D A D G B E

E------------------------------------------------------------------
B------------------------------------------------------------------
G------------------------------------------------------------------ x4
D-------------------0h1~~~~------0h1~~~~------0h1~~~~-------------- Intro.
A--3~3~0h1~~~~--3~3~0h1~~~~--3~3~0h1~~~~--3~3~0h1~~~~--3~3~0~~1~~--
D--3~3~0h1~~~~--3~3~0h1~~~~--3~3~0h1~~~~--3~3~0h1~~~~--3~3~0~~1~~--


E---------------------------------------
B---------------------------------------
G--------------------------------------- x2          Do this whole
D--3-3-3--6-6-6--5-5-5--6-6-6--5-5-6-6--              thing twice.
A---------------------------------------
D---------------------------------------
                                         Then...         Verse         
E---------------------------------------              
B---------------------------------------
G--------------------------------------- x2
D---------6-6-6--5-5-5--6-6-6--5-5-6-6--
A--3-3-3--------------------------------
D---------------------------------------



E--------------------------
B--------------------------
G-------------------------- x2
D--3~~~~~~~~~-6~~~~~~~~~~-- Bridge
A--3~~~~~~~~~-6~~~~~~~~~~--
D--3~~~~~~~~~-6~~~~~~~~~~--


E----------------------------------
B----------------------------------
G-------10~~~~~~~------------------ x4
D--3~3~---------------------------- Chorus
A--3~3~-8~~~~~~~~-6-6~~~~-8-8~~~~--
D--3~3~-----------6-6~~~~-8-8~~~~--


E------------------------------------------------------------------
B------------------------------------------------------------------
G------------------------------------------------------------------ x2
D-------------------0h1~~~~------0h1~~~~------0h1~~~~-------------- 
A--3~3~0h1~~~~--3~3~0h1~~~~--3~3~0h1~~~~--3~3~0h1~~~~--3~3~0~~1~~--
D--3~3~0h1~~~~--3~3~0h1~~~~--3~3~0h1~~~~--3~3~0h1~~~~--3~3~0~~1~~--


E---------------------------------------
B---------------------------------------
G--------------------------------------- x2          Do this whole
D--3-3-3--6-6-6--5-5-5--6-6-6--5-5-6-6--              thing twice.
A---------------------------------------
D---------------------------------------
                                         Then...         Verse         
E---------------------------------------              
B---------------------------------------
G--------------------------------------- x2
D---------6-6-6--5-5-5--6-6-6--5-5-6-6--
A--3-3-3--------------------------------
D---------------------------------------


E--------------------------
B--------------------------
G-------------------------- x2
D--3~~~~~~~~~-6~~~~~~~~~~-- Bridge
A--3~~~~~~~~~-6~~~~~~~~~~--
D--3~~~~~~~~~-6~~~~~~~~~~--


E----------------------------------
B----------------------------------
G-------10~~~~~~~------------------ x4
D--3~3~---------------------------- Chorus
A--3~3~-8~~~~~~~~-6-6~~~~-8-8~~~~--
D--3~3~-----------6-6~~~~-8-8~~~~--


E-----------------------
B-----------------------
G----------------------- x4
D--3~3-3~~~3~-6~~~8~~~--
A--3~3-3~~~3~-6~~~8~~~--
D--3~3-3~~~3~-6~~~8~~~--


E-------
B-------
G------- x8
D-------
A--3-3--
D--3-3--


E----------------------------------
B----------------------------------
G-------10~~~~~~~------------------ x4
D--3~3~---------------------------- Chorus
A--3~3~-8~~~~~~~~-6-6~~~~-8-8~~~~--
D--3~3~-----------6-6~~~~-8-8~~~~--


E-----------------------
B-----------------------
G----------------------- x4
D--3~3-3~~~3~-6~~~8~~~--
A--3~3-3~~~3~-6~~~8~~~--
D--3~3-3~~~3~-6~~~8~~~--


E----------------                                    E------
B----------------                                    B------
G---------------- x8....pause after 4 and end on the G------
D----------------                                    D------
A--3-3--x x x x--                                    A--3-3-
D--3-3--x x x x--                                    D--3-3-

There it is....a cool song to learn. enjoy dude. 
plz rate and check out ma other tabs.....thx.          munky_985


Текст, аккорды и табулатура для песни "Smothered", исполняет "Spineshank".
Используемые в песне аккорды можно найти в разделе Как брать аккорды. Аккорды для шестиструнной гитары. Другие песни можно найти на нашем сайте, воспользовавшись алфавитным указателем вверху страницы.


 
Ошибка в тексте? Выделите ошибку и нажмите Ctrl+Enter