SpineShank, New Disease.
Tabbed by Yuwon, [email protected]
  
Song: New Disease
Band: SpineShank
Transcribed by: Yuwon Byun
E-Mail: [email protected]

Tuning-low to high- Bb E Bb D Gb H


Intro
---5-5-5-----5-5-5-----5-5-5-----5-5-5-5-
---0-0-0-----0-0-0-----0-0-0-----0-0-0-0-
---7-7-7-----7-7-7-----7-7-7-----7-7-7-7- x2
-7----7-7--------------------------------
-5----5----6----6-6--5----5-5--3----3----
-----------6----6----5----5----3----3----

Riff 1
-22-2------------
-22-2------------  First time only  x4
-22-2------------

-44-4-----------
-22-2-----------   Second time only
----------------
----------------

Riff 2
-22-2------------------------------------
-22-2--23232323--------------------------  x4
-22-2------------------------------------

-2-----------5-----------------------
-2------2-2-2------------------------   x8
-2-----------------------------------

Chorus- Same as an intro

Riff 3
                        x3
---------------I------------I----
--2------------I------------I----
----3-2-0-0-20-I-0-1-0-0-32-I----

-2--0-3-2------------------
-2--0-3-2------------------ repeat couple times
-2--0-3-2------------------

Outro

--------------------------------------------
--------------------------------------------
---7-7-7-----7-7-7-----7-7-7-----5-5-55----- x2
--------------------------------------------
-5----5-5-----------------------------------
-----------6----6-6--5----5-5--3----3-------

 
:: Ultimate Guitar Archive :: 
http://www.ultimate-guitar.com 



Текст, аккорды и табулатура для песни "New Disease", исполняет "Spineshank".
Используемые в песне аккорды можно найти в разделе Как брать аккорды. Аккорды для шестиструнной гитары. Другие песни можно найти на нашем сайте, воспользовавшись алфавитным указателем вверху страницы.


 
Ошибка в тексте? Выделите ошибку и нажмите Ctrl+Enter