Not whole song, main riff (in rock style)

-----------------------------
-------2-3---------2-2-------
---3-5-2-3-3-2-5-3-2-2-5-5-3-
-4-3-5-0-1-3-2-5-3-0-0-5-5-3-
-4-1-3-----1-0-3-1-----3-3-1-
-2---------------------------

main riff (normal)

-------0-1---------0-0------
---1-3-----1-0-3-1----3-3-1-
-2--------------------------
----------------------------
----------------------------
----------------------------


Текст, аккорды и табулатура для песни "You Drive Me Crazy", исполняет "Spears Britney".
Используемые в песне аккорды можно найти в разделе Как брать аккорды. Аккорды для шестиструнной гитары. Другие песни можно найти на нашем сайте, воспользовавшись алфавитным указателем вверху страницы.


 
Ошибка в тексте? Выделите ошибку и нажмите Ctrl+Enter