Intro
|-7-------7-------|-7-------7-------|-7-------7-------|-7---------------|
|-----7-8----7-87-|-----7-8----7-87-|-----7-8----7-87-|-----7-8-108-7---|
|---7-------7-----|---7-------7-----|---7-------7-----|---7-----------9-|
|-----------------|-----------------|-----------------|-----------------|
|-----------------|-----------------|-----------------|-----------------|
|-----------------|-----------------|-----------------|-----------------|
|                 |                 |                 |                 |
|-----------------|-----------------|-----------------|-----------------|
|-----------------|-----------------|-----------------|-----------------|
|-----------------|-----------------|-----------------|-----------------|
|-----------------|-----------------|-----------------|-----------------|
|-----------------|-----------------|-----------------|-----------------|
|-----------------|-----------------|-----------------|-----------------|

Verse
|-7-------7-------|-7-------7-------|-7-------7-------|-7---------------|
|-----7-8----7-87-|-----7-8----7-87-|-----7-8----7-87-|-----7-8-108-7---|
|---7-------7-----|---7-------7-----|---7-------7-----|---7-----------9-|
|-----------------|-----------------|-----------------|-----------------|
|-----------------|-----------------|-----------------|-----------------|
|-----------------|-----------------|-----------------|-----------------|
|                 |                 |                 |                 |
|-----------------|-------------9-9-|-----------------|-------------9-9-|
|-----------------|-----------------|-----------------|-----------------|
|-7777666222222---|-7777666222/9-9-9|-7777666222222---|-7777666222/9-9-9|
|-----------------|-----------------|-----------------|-----------------|
|-----------------|-----------------|-----------------|-----------------|
|-----------------|-----------------|-----------------|-----------------|

Pre-Chorus
|-----------------|-----------------|-----------------|-----------------|
|-----------------|-----------------|-----------------|-----------------|
|-----------------|-----------------|-------------4---|-2---------------|
|-0-----------4---|-5-----------4---|-0---------------|-----------------|
|-----------------|-----------------|-----------------|-----------------|
|-----------------|-----------------|-----------------|-----------------|
|                 |                 |                 |                 |
|-----------------|-----------------|-----------------|-----------------|
|-----------------|-----------------|-----------------|-----------------|
|-----------------|-----------------|-----------------|-----------------|
|-----------------|-----------------|-----------------|-----------------|
|-----------------|-----------------|-----------------|-----------------|
|-----------------|-----------------|-----------------|-----------------|


|-----------------|-----------------|-----------------|-10--7-----------|
|-----------------|-----------------|-----------------|---------10--8---|
|-----------------|-----------------|-------------4---|-2---------------|
|-0-----------4---|-5-----------4---|-0---------------|-----------------|
|-----------------|-----------------|-----------------|-----------------|
|-----------------|-----------------|-----------------|-----------------|
|                 |                 |                 |                 |
|-----------------|-2-----------3---|-2---------------|-----------------|
|-3-----------2---|-----------------|-------------3---|-2-------3-------|
|-----------------|-----------------|-----------------|-----------------|
|-----------------|-----------------|-----------------|-----------------|
|-----------------|-----------------|-----------------|-----------------|
|-----------------|-----------------|-----------------|-----------------|

Chorus
|-----------------|-----------------|-----------------|-----------------|
|-----------------|-----------------|-----------------|-----------------|
|-4--4--2---------|-4--4--4--2------|-4--4------------|-4--4------------|
|-----------------|-----------------|-------4---------|-------2---------|
|-4--5--9---------|-4--5--12-9------|-4--5--2---------|-4--5------------|
|-----------------|-----------------|-----------------|-------0---------|
|                 |                 |                 |                 |
|-1414141212121212|-1010109-9-9-9-9-|-1414141212121212|-1010109---------|
|-1212121212121212|-1010107-7-7-7-7-|-1212121212121212|-1010107---------|
|-----------------|-----------------|-----------------|-----------------|
|-----------------|-----------------|-----------------|-----------------|
|-----------------|-----------------|-----------------|-----------------|
|-----------------|-----------------|-----------------|-----------------|


Bridge
|-3--23--23--23--2|-3--23--23--23--2|-3--23--23--23--2|-3--23--23--23--2|
|---3---3---3---3-|---3---3---3---3-|---3---3---3---3-|---3---3---3---3-|
|--2---2---2---2--|--2---2---2---2--|--2---2---2---2--|--2---2---2---2--|
|-4-444-444-444-44|-7-777-777-777-77|-----------------|-----------------|
|-2-222-222-222-22|-5-555-555-555-55|-5-555-555-555-55|-5-555-555-555-55|
|-----------------|-----------------|-3-333-333-333-33|-3-333-333-333-33|
|                 |                 |                 |                 |
|-----------------|-------------9-9-|-----------------|-9-9-9-9-9-9-9-9-|
|-----------------|-----------------|-----------------|-----------------|
|-7777666222444222|-7777666222/9-9-9|-7777666222444222|-99-9-9-9-9-9-9-9|
|-----------------|-----------------|-----------------|-----------------|
|-----------------|-----------------|-----------------|-----------------|
|-----------------|-----------------|-----------------|-----------------|


Текст, аккорды и табулатура для песни "The Host", исполняет "Sparta".
Используемые в песне аккорды можно найти в разделе Как брать аккорды. Аккорды для шестиструнной гитары. Другие песни можно найти на нашем сайте, воспользовавшись алфавитным указателем вверху страницы.


 
Ошибка в тексте? Выделите ошибку и нажмите Ctrl+Enter