(fret #) = let note ring
/ = slide

Intro A (starts at about 0:13)
G|--------------------------|
D|--------------------------|
A|-5-6-7--(0)---------------|
D|--------------------------|

Intro B/Pre-chorus (starts at 0:27)
G|------------------|
D|------------------|
A|-00000--999999----|
D|------------------|
(figure out how many times to play the notes yourselves.)

Verse (0:42)
G|---------7-9--------14/----------------|
D|---------------------------------------|
A|-0-00000-----000000-----99999999--55-7-|
D|---------------------------------------|
(again, not the exact number of notes to be played)

Chorus (1:04)
G|-----|----------------------|
D|-----|----------------------|
A|55-7-|-4-4444-2-2222-0-0000-|
D|-----|----------------------|

Interlude A (2:21)
G|-7-(9)---9/(2)-|--7-(9)--14-13-11-|
D|---------------|------------------|
A|---------------|------------------|
D|---------------|------------------|

Interlude B (2:48)
G|---------------------------------------|
D|---------------------------------------|
A|-----------------99-99-99---99-99-99---|
D|-4-444--5-555--0----------0----------0-|

Intro A      x2
Intro B      x2
Verse        x2
Intro B      x2
Chorus       x4
Intro B      x2
Verse        x4
Chorus       x4
Interlude A  x2
Interlude B  x2
Chorus       x8
Interlude B  x4


Текст, аккорды и табулатура для песни "Light Burns Clear", исполняет "Sparta".
Используемые в песне аккорды можно найти в разделе Как брать аккорды. Аккорды для шестиструнной гитары. Другие песни можно найти на нашем сайте, воспользовавшись алфавитным указателем вверху страницы.


 
Ошибка в тексте? Выделите ошибку и нажмите Ctrl+Enter