Soundgarden - Tighter & Tighter
[email protected] (Judy Letostak)
The Music Shop BBS (619)423-4970 (San Diego, California)
1:202/1109 (FidoNet)
282:100/102 (MetalNet)
http://www.netcom.com/~letostak/musicshp.html
Please listen to the recording for the exact phrasing
of the song.  This is in no way 100% accurate or complete.
You can find 9,000+ guitar tab on The Music Shop BBS


||------------------------|--------------------|
||o-----------------------|---------%----------|
||o-----------------------|--------------------|
||---0---3/15~-----(15)--|--------------------|


--------------------------||--------------------
-------------------------o||o-------------------
-------------------------o||o-----10b(11)-rb10--
-0---3/12~-----12--------||---0----------------


----------------------------------------------||
---------------------------------------------o||
----10b(11)-rb10--------------5-----5--5----o||
-0----------------------7---7-----7-----------||

   1st Verse
||----------------------------------------------
||o---------------------------------------------
||o------10b(11)-rb10-------10b(11)-rb10-------
||---0-------------------0----------------------


-------------------||
-------------------||4x
-------5----5--5---||
-7---7---7---------||


------------------------------------------------
-------9----------------------------------------
---------10-------------------------------------
-8----------8----8--7--0---0--0--0---0-0-0-0-0--

                Chorus
------------------------------------------------
------------------------------------------------
--------5/-----------10b(11)-rb10-5-5h7--------
-h3/5------------0------------------------------


------------------------------------------------
-----------------------------------------------9
----10b(11)-rb105-5h7-----7b(9)-------10-------
-0----------------------5-----------8------8----


------------------------------------------------
------------------------------------------------
-10------------------10b(11)-rb105--5h7/-------
----8---8--8--8--0-----------------------------


------------------------------------------------
-----------------------------------------------9
-----10b(11)--rb105--5h7-----7b(9)------10-----
--0------------------------5----------8-----8---


------------------------------------------------
------------------------------------------------
-10---------------------------------------------
-----8--8--8--8--------------------------------

2nd Verse

||----------------------------------------------
||o---------------------------------------------
||o----10b(11)-rb10-------10b(11)-rb10---------
||--0------------------0------------------------

end 1 2 3            end 4 
-------------------||---------------------------
------------------o||---------------------------
------5-----5--5--o||-------5-----5--5----------
-7--7----7---------||-7--7-----7----------------


Chorus

||-----------------------------------------------
||-----------------------------------------------
||---10b(11)-rb105-5h7-/------10b(11)-rb105----
||0-------------------------0--------------------


----------------------------------------------||
---------------------------9-----------------o||
-5h7-----7b(9)------10-------10--------------o||
------5----------8------8-------8--8--8--8---||


------------------------------------------------
------------------------------------------------
----------------------5---5-5--5--5-5--5-5-5----
-0--0---0--0--0-0-0-----------------------------


------------------------------------------------
------------------------------------------------
------------------------------------------------
-0--0--0--0-0--0-0-0-0-0-0---5--5-5-5--5-5-5----


------------------------------------------------
------------------------------------------------
----------3--3--3--3-3--3-3-3-------------------
-5-5-5-3-----------------------3---5--5--5--3--2

                   Guitar solo
------------------------------------------------
-x--9--7----------------------------------------
----------10--7----7--------5/7--7--7---1~-----
------------------------3/5---------------------


----------------------------||------------------
----------------------------||o-----------------
--2~----3~-----5--5--5--5---||o--5--7-----------
------------0---------------||---------0--0--3--


------------------------------------------------
------------------------------------------------
------------------------1~-----2~----3~---------
--3--3--3--3--5--0--0---------------------0-----


------------------||
-----------------o||
--5--5--5--5-----o||4x
------------------||


------------------------------------------------
------------------------------------------------
-5--7--------------------------------1~---2~----
-------0--0--3--3--3--3--3--5--0--0-------------


------------------------------------------------
-----9-----------------------9------------------
-------10--------------10------10---------------
--8-------8-----8--8-8----8-------8----8-------

                     end 1            end 2
||-------------|----|---------------||----------
||o------------|-%--|--------------o||----------
||o------------|----|--------------o||----------
||--0--3/15~---|----|-0--3/12~-----||-0--3/12~


Interlude
                         End 1
||----------------|-----|-----------------------||
||----------------|--%--|----9-----------------o||
||----------------|-----|-------10-------------o||
||-0---3/15~-----|-----|-8---------8----8-----||


End 2
--------|
--------|
--------|
-8------|

Chorus

||------------------------------------------|--|
||o-----------------------------------------|-%|
||o---------10-10-10-10-10-10---10-10-10-10-|--|
||---0--0-0-------------------0-------------|--|


-------------------------------||---------------
-----------9------------------o||---------------
----10-------10---------------o||---------------
-8-----8--------8----8--8--8--||-0--0--0--0--0-


------------------------------------------------
-------------------------------------14----14---
---------------5--5--5---5-5--5--5--------------
-0--0--0h3/5----------------------------0-----0-


------------------------------------------------
-14--14-----------------------------------------
------------------------------------------------
---------0--7----5--5-5-5--5-5-5--5-5-5-3-------


------------------------------------------------
------------------------------------------------
-3--3--3-3--3--3-3-3-3--------------------------
------------------------3----5--5--5--3--2------

Free time

-------------------------9--------9p7-----7h9---
---------------------------9-----79---7h9-------
--7--7--7---7---10--7--------7------------------
--0--0--0---0-----------------------------------


-9h10p9-------9--9--------9-------9-------9-----
------------9-------7--------7-------7-------7--
----------7------------7--------7-------7-------7
------------------------------------------------


-9---------9----------9---------9---------------
----7---------7----------7---------7------------
-------7---------7----------7---------7---------
------------------------------------------------


The Music Shop BBS (619)423-4970  (San Diego, CA  USA)
Over 10,000 Guitar Tabs, pictures, construction docs, lessons, 
interviews, Over 1000 Bass Tabs, sound files, lyrics, programs.  
Metal Underground Scene WHQ, Kruel EMag Distro Site.
===========================================================
h = hammeron                          ps = pick scrape   
p = pulloff                           % = repeat phrase
~ = vibrato                           [email protected]
b = bend                              + natural harmonic
/ = Slide
* = Artificial Harmonic
x = ghost note
tr = trill
===========================================================
for music ansi and monthly tab releases
ftp.cdrom.com .4/artpacks/incoming/artpacks MUS-0***.ZIP
or
http://www.netcom.com/~letostak/musicshp.html MANSI.ZIP


[email protected]
The Music Shop BBS (619)423-4970  Over 10,000 guitar/bass
tab.  3.7Gigs of music files 4cdroms online, 24/7 access
http://www.netcom.com/~letostak/musicshp.html
download MANSI.ZIP for montly ansi/tab releases.



Текст, аккорды и табулатура для песни "Tighter And Tighter", исполняет "Soundgarden".
Используемые в песне аккорды можно найти в разделе Как брать аккорды. Аккорды для шестиструнной гитары. Другие песни можно найти на нашем сайте, воспользовавшись алфавитным указателем вверху страницы.


 
Ошибка в тексте? Выделите ошибку и нажмите Ctrl+Enter