Outshined by Soundgarden (tablature)


tuning (low to high) DADGBE

This song isn't that tough to play if you tune the low E string down to D
Here's my version (it's pretty close) of Outshined

Intro

---------------------------------------------------------------
---------------------------------------------------------------
-------------------5-------------------------------------------
-------------------5-------------------------------------------
---0-0-0-3-5-3-0-3----6-5-3-5-3--------------------------------
---0-0-0-3-5-3-0-3----6-5-3-5-3-----repeat until the chorus and
                                    during the verse

for the part right before the chorus with the ringing chords,
I play this.

---2-2-2-2-2-2------2-2-2-2-2-0--5-------
---3-3-3-3-3-3------3-3-3-3-3-0-5--------
---2-2-2-2-2-0------2-2-2-2-2-1----------
---0-0-0-0-0-0------0-0-0-0-0-2----------
------------------------------2----------
-----------------------------------------
this also gets repeated a few times, until they go back to drop D grunge
for the chorus. Right before the chorus starts slam, the lowest two strings
for the D.

then play..
-----------------------------------------------------------
-----------------------------------------------------------
-----------------------------------------------------------
-----------------------------------------------------------
-7-5-0-3-5-0---3-5-0-3-0^3-6-6-6-5-3-0-3-3-3-3-3-3-3/5-----
-7-5-0-3-5-0---3-5-0-3-0^3-6-6-6-5-3-0--5-5----------------
the single note riff at the end gets extended at the end of the chorus,
and then play this to lead back into the verse.

----------------------------------------------------------
----------------------------------------------------------
--5---5--------5---5--------5---5--------5---5------------
--5---5--------5---5--------5---5--------5---5------------
--3---3--------3---3--------3---3--------3---3------------
----------------------------------------------------------
 out-shined   out-shined   out-shined   out-shined

then back to the first riff.

now is my official attempt at those chord progressions when they quiet down
near the end of the song. Please forgive me if I offend any Soundgarden fans othere.

----------------------------------------------------------
----------------------------------------------------------
----------------------------------------------------------
---7-7-7-9-7-7-5-4-5-4-5-4-5----5-------------------------
---5-5-5-5-5-5-5-5-5-5-5-5-5----3-(let ring, or strum again, your choice)
----------------------------------------------------------



Текст, аккорды и табулатура для песни "Outshined", исполняет "Soundgarden".
Используемые в песне аккорды можно найти в разделе Как брать аккорды. Аккорды для шестиструнной гитары. Другие песни можно найти на нашем сайте, воспользовавшись алфавитным указателем вверху страницы.


 
Ошибка в тексте? Выделите ошибку и нажмите Ctrl+Enter