Song: Full On Kevin's Mom
Artist: Soundgarden
Album: Louder Than Love
Tabbed By: Cheran Shunmugavel
           [email protected]

Standard Tuning (EADG)

(The guitars are tuned in dropped D (DADGBe),
 but the bass doesn't use the lowest string,
 so you can get away with leaving it in
 standard tuning.)


[Main]
Riff A            X2
G-------------------
D-------------------
A--0-3330-6-888888--
E-------------------

Riff B            X2
G-------------------
D-------------------
A--0-3330-6-666666--
E-------------------

Riff A   X2
Riff B   X2

Riff C            X4
G-------------------
D-------------------
A--0-3330-0-000000--
E-------------------
[End Main]


[Verse]
Riff D              X1
G---------------------
D---------------------
A--0-3330-7-----(7)--
E---------------------

Riff C   X2
Riff D   X1
Riff C   X2
Riff A   X3

Riff E                                          X1
G-------------------------------------------------
D-------------------------------------------------
A--11^-11^-11^-11^-11^-11^-11^-11^--10-8-----(8)--
E-------------------------------------------------
[End Verse]


[Chorus]
Riff F                X3
G-----------------------
D------------5-7-5-6-5--
A--7-5-7-5-7------------
E-----------------------

Riff G          X1
G-----------------
D------------5-6--
A--7-5-7-5-7------
E-----------------
[End Chorus]


Riff H                         
G------------------------------------
D----------------5-------------------
A--x-7-5-------x---5-------x-7-5-----
E------------------------------------


Riff I
G---------------------------
D---------------------------
A--0-3330-0-00000000000000--
E---------------------------



Play the song in this order:

[Main]   X1
[Verse]  X1
[Chorus] X1

[Main]   X1
[Verse]  X1
Riff F   X4
[Chorus] X1

Riff H   X4
Riff F   X4
[Chorus] X1
[Main]   X1
Riff D   X1
Riff I   X1


With Riffs A, B, C, D, and I, on those parts with a great amount
of repeated notes, the exact number of those notes played may not
be what I have written.  Just play with the song and the correct
number should be easy to figure out.




Текст, аккорды и табулатура для песни "Full On Kevins Mom", исполняет "Soundgarden".
Используемые в песне аккорды можно найти в разделе Как брать аккорды. Аккорды для шестиструнной гитары. Другие песни можно найти на нашем сайте, воспользовавшись алфавитным указателем вверху страницы.


 
Ошибка в тексте? Выделите ошибку и нажмите Ctrl+Enter