Soulfly - Tree Of Pain - III

Tabbed by Elvisz ([email protected])

Well this is a great song, with lots of feeling... i think this tab pretty
good, i mean it  sounds just like the real stuff (4 me), i think it's 
pretty accurate... hope it will help you...

Intro:
(one guitar repeats lots)
|--------------------------------------------------------------------|
|-------------------------------------------------0------------0-----|
|------0~~---0~~---0~~-----0~~---0~~---0~~----0------0~----0------0~-|
|-2~------2-----2-----2~------2-----2-------0---0---0----0---0---0---|
|----5-----5-----5-------5-----5-----5----3------------3-------------|
|--------------------------------------------------------------------|

Intro(part1):
(one guitar)
|--------------------------------------------------------------------|
|-------------------------------------------------0------------0-----|
|------0~~---0~~---0~~-----0~~---0~~---0~~----0------0~----0------0~-|
|-2~------2-----2-----2~------2-----2-------0---0---0----0---0---0---|
|----5-----5-----5-------5-----5-----5----3------------3-------------|
|--------------------------------------------------------------------|

(other guitar)
|--------------------------------------------------------------------|
|-0-------------------0-------------------------0------------0-------|
|---------------------------------------------0---0~-------0---0~----|
|-------------------------------------------0----0-------0----0------|
|--------------------------------------------------------------------|
|--------------------------------------------------------------------|

(another guitar)
|--------------------------------------------------------------------|
|-------------------------------------------------0--1~--------0--1~-|
|---------------------------------------------0----0-------0----0----|
|-------------------------------------------0---0--------0---0-------|
|-----------------------------------------3-------------3------------|
|--------------------------------------------------------------------|

Intro:(part2):
(one guitar)
|--------------------------------------------------------------------|
|-------------------------------------------------0------------0-----|
|------0~~---0~~---0~~-----0~~---0~~---0~~----0------0~----0------0~-|
|-2~------2-----2-----2~------2-----2-------0---0---0----0---0---0---|
|----5-----5-----5-------5-----5-----5----3------------3-------------|
|--------------------------------------------------------------------|

(other guitar)
|--------------------------------------------------------------------|
|-0-------------------0--------------------------------------0-------|
|---0~~~---------------------------------------------------0---0~----|
|--------------------------------------------------------0----0------|
|--------------------------------------------------------------------|
|--------------------------------------------------------------------|

(another guitar)
|--------------------------------------------------------------------|
|--------------------------------------------------------------0--1~-|
|----------------------------------------------------------0----0----|
|--------------------------------------------------------0---0-------|
|-------------------------------------------------------3------------|
|--------------------------------------------------------------------|

Intro:(part2):
(one guitar)
|--------------------------------------------------------------------|
|-------------------------------------------------0------------0-----|
|------0~~---0~~---0~~-----0~~---0~~---0~~----0------0~----0------0~-|
|-2~------2-----2-----2~------2-----2-------0---0---0----0---0---0---|
|----5-----5-----5-------5-----5-----5----3------------3-------------|
|--------------------------------------------------------------------|

(other guitar)
|--------------------------------------------------------------------|
|-0-------------------0--------------------------------------0-------|
|---0------------------------------------------------------0---0~----|
|-----0~~~~----------------------------------------------0----0------|
|--------------------------------------------------------------------|
|--------------------------------------------------------------------|

(another guitar)
|--------------------------------------------------------------------|
|--------------------------------------------------------------0--1~-|
|----------------------------------------------------------0----0----|
|--------------------------------------------------------0---0-------|
|-------------------------------------------------------3------------|
|--------------------------------------------------------------------|

Verse:(heavy and fucking fast...kinda hurts)
|------------------------------|
|------------------------------|
|------------------------------|
|-44x4x477x7x799x9x91111x11x11-|
|-44x4x477x7x799x9x91111x11x11-|
|-220202550505770707 9 90 90 9-|

Bridge1:
(one guitar fast!)
|-------------------------------|
|-------------------------------|
|-------------------------------|
|-------------------------------|
|-------------------------------|
|-000010-000010-000010-00001010-|

(other guitar)
|------------------------------|
|------------------------------|
|-7777X--7777X--7777X--7777X---|
|------------------------------|
|------------------------------|
|------------------------------|

Verse:(heavy and fucking fast...kinda hurts)
|------------------------------|
|------------------------------|
|------------------------------|
|-44x4x477x7x799x9x91111x11x11-|
|-44x4x477x7x799x9x91111x11x11-|
|-220202550505770707 9 90 90 9-|

Chorus1:
|-------------------------|
|-------------------------|
|-------------------------|
|-------------------------|
|-0h2h3-0h2h3-0h2h3r0h2h3-|
|-0h2h3-0h2h3-0h2h3r0h2h3-|

Fill1:
|---------|
|---------|
|---------|
|---------|
|--|
|--|

Chorus2:
|--------------------------------|
|--------------------------------|
|--------------------------------|
|--------------------------------|
|-0h2h3-0h2h3-0h2h3r0h2h3-XXXXX-|
|-0h2h3-0h2h3-0h2h3r0h2h3-XXXXX-|

Verse:(heavy and fucking fast...kinda hurts)
|------------------------------|
|------------------------------|
|------------------------------|
|-44x4x477x7x799x9x91111x11x11-|
|-44x4x477x7x799x9x91111x11x11-|
|-220202550505770707 9 90 90 9-|

Bridge1:
(one guitar fast!)
|-------------------------------|
|-------------------------------|
|-------------------------------|
|-------------------------------|
|-------------------------------|
|-000010-000010-000010-00001010-|

(other guitar)
|------------------------------|
|------------------------------|
|-7777X--7777X--7777X--7777X---|
|------------------------------|
|------------------------------|
|------------------------------|

Verse:(heavy and fucking fast...kinda hurts)
|------------------------------|
|------------------------------|
|------------------------------|
|-44x4x477x7x799x9x91111x11x11-|
|-44x4x477x7x799x9x91111x11x11-|
|-220202550505770707 9 90 90 9-|

Chorus1:
|-------------------------|
|-------------------------|
|-------------------------|
|-------------------------|
|-0h2h3-0h2h3-0h2h3r0h2h3-|
|-0h2h3-0h2h3-0h2h3r0h2h3-|

Fill1:
|---------|
|---------|
|---------|
|---------|
|--|
|--|

Chorus2:
|--------------------------------|
|--------------------------------|
|--------------------------------|
|--------------------------------|
|-0h2h3-0h2h3-0h2h3r0h2h3-XXXXX-|
|-0h2h3-0h2h3-0h2h3r0h2h3-XXXXX-|

Bridge2:(fast...)
|---------------------------------------------|
|---------------------------------------------|
|---------------------------------------------|
|---------------------------------------------|
|---------------------------------------------|
|-h4`0h3`0h2`0h1`0-222/5-h4`0h3`0h2`0h1`0-221-|

Bridge3:
|---------------------------------------------|
|---------------------------------------------|
|---------------------------------------------|
|---------------------------------------------|
|-h4`0h3`0h2`0h1`0-222/5-h4`0h3`0h2`0h1`0-221-|
|-h4`0h3`0h2`0h1`0-222/5-h4`0h3`0h2`0h1`0-221-|

Bridge4:
|-------------------|
|-------------------|
|-------------xxxxx-|
|-------------2///5-|
|-00-00-00-00-2///5-|
|-00-00-00-00-2///5-|

Fill2:
|----------------------|
|----------------------|
|-------------xxxxx^~~-|
|-------------2///5^~~-|
|-00-00-00-00-2///5^~~-|
|-00-00-00-00-2///5^~~-|

Outro1:
|--------------------------------------------------------------------|
|-------------------------------------------------0------------0-----|
|------0~~---0~~---0~~-----0~~---0~~---0~~----0------0~----0------0~-|
|-2~------2-----2-----2~------2-----2-------0---0---0----0---0---0---|
|----5-----5-----5-------5-----5-----5----3------------3-------------|
|--------------------------------------------------------------------|

Outro2:
|--------------------------------------------------------------------|
|-------------------------------------------------0------------0-----|
|------0~~---0~~---0~~-----0~~---0~~---0~~----0------0~----0------0~-|
|-2~------2-----2-----2~------2-----2-------0---0--------0---0-------|
|----5-----5-----5-------5-----5-----5----3------------3-------------|
|--------------------------------------------------------------------|

Outro3:
(one guitar)
|--------------------------------------------------------------------|
|-------------------------------------------------0------------0-----|
|------0~~---0~~---0~~-----0~~---0~~---0~~----0------0~----0------0~-|
|-2~------2-----2-----2~------2-----2-------0---0---0----0---0---0---|
|----5-----5-----5-------5-----5-----5----3------------3-------------|
|--------------------------------------------------------------------|

(other guitar)
|--------------------------------------------------------------------|
|-0-------------------0--------------------------------------0-------|
|---0~~~---------------------------------------------------0---0~----|
|--------------------------------------------------------0----0------|
|--------------------------------------------------------------------|
|--------------------------------------------------------------------|

(another guitar)
|--------------------------------------------------------------------|
|--------------------------------------------------------------0--1~-|
|----------------------------------------------------------0----0----|
|--------------------------------------------------------0---0-------|
|-------------------------------------------------------3------------|
|--------------------------------------------------------------------|

Outro4:(and slow everything fades out)
|--------------------------------------------------------------------|
|-------------------------------------------------0------------0-----|
|------0~~---0~~---0~~-----0~~---0~~---0~~----0------0~----0------0~-|
|-2~------2-----2-----2~------2-----2-------0---0---0----0---0---0---|
|----5-----5-----5-------5-----5-----5----3------------3-------------|
|--------------------------------------------------------------------|

(other guitar)
|--------------------------------------------------------------------|
|-0-------------------0------------------------0-------------0-------|
|---0-------------------0--------------------0----0~-------0---0~----|
|-----0~~~~---------------0~~~~------------0-----0-------0----0------|
|--------------------------------------------------------------------|
|--------------------------------------------------------------------|

(another guitar)
|--------------------------------------------------------------------|
|--------------------------------------------------------------0--1~-|
|----------------------------------------------------------0----0----|
|--------------------------------------------------------0---0-------|
|-------------------------------------------------------3------------|
|--------------------------------------------------------------------|


Текст, аккорды и табулатура для песни "Tree Of Pain", исполняет "SoulFly".
Используемые в песне аккорды можно найти в разделе Как брать аккорды. Аккорды для шестиструнной гитары. Другие песни можно найти на нашем сайте, воспользовавшись алфавитным указателем вверху страницы.


 
Ошибка в тексте? Выделите ошибку и нажмите Ctrl+Enter