soulfly,son song.
Tabbed by mark kerry,[email protected]
  
Soulfly - son song
Tuning - tuned down 1 and a half steps 
         Low to high = C# F# B E G# C#
Transcribed by Mark Kerry

Key 
x = mute
~ = Vibrato
/ = Slide


Intro (guitar 1) x1     then      (guitar 1&2) x1
|-------------------------------|   |-----------|
|-------------------------------|   |-----------|
|-------------------------------|   |-----------|
|-------------------------------|   |-----------|
|-------------------------------|   |-----------|
|--0-0-5-4-3-0-3-4-5-0-0-5-4-3--|   |--0-3-4-5--|
                                                                              
main riff (Guitar 1&2) Sean Lennon verse
|-----------------------------------------------|
|-----------------------------------------------|
|-----------------------------------------------|
|-----------------------------------------------|
|-----------------------------------------------|
|--0-0-5-4-3-0-3-4-5-0-0-5-4-3-0-3--------------|

fill                                                                              
(Guitar 1)       (Synth guitar)
|-------|   |------3-----/---15-~~~~~~~~--------|
|-------|   |-----------------------------------|
|-------|   |-----------------------------------|
|-------|   |-----------------------------------|
|-------|   |-----------------------------------|
|---0---|   |-----------------------------------|
                                                                              
(Guitar 1)
|-----------------------------------------------|
|-----------------------------------------------|
|-----------------------------------------------|
|-----------------------------------------------|
|------------------7-------7--------------------|
|--5-5-5-5-5-5-5-5---5-5-5---5-5-5--------------|
                                                                              
(Guitar 2) Max Cavalera verse
|-----------------------------------------------|
|--7-7-7-7-7-7-7-7-9-x-x-x-9-x-x-x--------------|
|--x-x-x-x-x-x-x-x-x-x-x-x-x-x-x-x--------------|
|--5-5-5-5-5-5-5-5-7-x-x-x-7-x-x-x--------------|
|-----------------------------------------------|
|-----------------------------------------------|
                                                                               
:: Ultimate Guitar Archive :: 
http://www.ultimate-guitar.com 



Текст, аккорды и табулатура для песни "Son Song", исполняет "SoulFly".
Используемые в песне аккорды можно найти в разделе Как брать аккорды. Аккорды для шестиструнной гитары. Другие песни можно найти на нашем сайте, воспользовавшись алфавитным указателем вверху страницы.


 
Ошибка в тексте? Выделите ошибку и нажмите Ctrl+Enter