Soulfly - Seek n' Strike

Tuning: Down 1.5 steps and drop B (low to high: B F# B E G# C#)

Riff A (Gtr 1 & 2)

|-------------------|-------------------|
|-------------------|-------------------|
|-------------------|-------------------|
|-------------------|-------------------|
|-------------------|-------------------|
|2-1-2-1-144-1-2-1-1|2-1-2-1-144-1-2-1-1| (144 means pick fret 1 then 4 then 4)

Riff B (Gtr 1)

|------------------|
|------------------|
|------------------|
|------------------|
|---------5555-888-|
|2222-666----------|

Riff B (Gtr 2 - comes in with Gtr 1 after Gtr 1 has played Riff B twice)

|----------------|
|9999999999999999| (played with some strange effect, perhaps wah-wah)
|----------------|
|----------------|
|----------------|
|----------------|

Chorus Riff (Gtr 1 & 2)

|----------------|
|----------------|
|----------------|
|----------------|
|----------------|
|606060606060699-|

Bridge (palm muted)

|------------------------------------------------|
|------------------------------------------------|
|------------------------------------------------|
|------------------------------------------------|
|------------------------------------------------|
|000000000000000000000000000000000000000000000000|

Outro Riff

|--------|
|--------|
|--------| 
|--------|
|--------|
|0-0-410-|

Solo (played with a temolo effect, and probably a wah-wah)

|-----------------|----------------|-----------------|-----------------|
|10-----------8---|7---------------|-----------------|-----------------|
|-----------------|--------7-------|8-------7---11---|10---------------|
|-----------------|----------------|-----------------|-----------------|
|-----------------|----------------|-----------------|-----------------|
|-----------------|----------------|-----------------|-----------------|

|-------------15---|14---17-----------|-------------------|22vb---------------|
|15----------------|------------------|15-------16---18---|-------------------|
|------------------|------------------|-------------------|-------------------|
|------------------|------------------|-------------------|-------------------|
|------------------|------------------|-------------------|-------------------|
|------------------|------------------|-------------------|-------------------|

That's it - a truly phat song.

NB: These vertical lines: | indicate the bar boundaries.
vb = vibrato

Tabbed by Tom (I'm not giving my email address because then someone
may sign me up for loads of porno emails)


Текст, аккорды и табулатура для песни "Seek N Strike", исполняет "SoulFly".
Используемые в песне аккорды можно найти в разделе Как брать аккорды. Аккорды для шестиструнной гитары. Другие песни можно найти на нашем сайте, воспользовавшись алфавитным указателем вверху страницы.


 
Ошибка в тексте? Выделите ошибку и нажмите Ctrl+Enter