NO HOPE = NO FEAR - SOULFLY
Tunned to C#?
6|--4-0-1--1-0-1--1-0-1--1-0-1--|

6|--4-4-4-4-4-4-4-4--|

5|--6-2-3--3-2-3--3-2-3--3-2-3--|
6|--4-0-1--1-0-1--1-0-1--1-0-1--|

5|--6----------------|
6|--4----------------|

5|--6-6--3-3--5-5--2-2---/x--|
6|--4-4--1-1--3-3--0-0---/x--|

A|--6-6--3-3--5-5--2-2--xxxx--|
E|--4-4--1-1--3-3--0-0--xxxx--|

E|--4-4--1-1--3-3--0-0--0-1-3--|

E|--1-0-1--1-0-1--1-0-1--1-0-4-4-4--|


Текст, аккорды и табулатура для песни "No Hope No Fear", исполняет "SoulFly".
Используемые в песне аккорды можно найти в разделе Как брать аккорды. Аккорды для шестиструнной гитары. Другие песни можно найти на нашем сайте, воспользовавшись алфавитным указателем вверху страницы.


 
Ошибка в тексте? Выделите ошибку и нажмите Ctrl+Enter