BLEED

from: SOULFLY

Tunned to C#?

e|---------------------------|
B|---------------------------|
G|---------------------------|
D|---------------------------|
A|---------------------------|
E|--2^0--3^0--2-3-2-0-3^2^0--|

e|-------------------|
B|-------------------|
G|-------------------|
D|-------------------|
A|--2--2---2-2--2----|
E|--0--0---0-0--0----|

e|--------------------------------------|
B|--------------------------------------|
G|--------------------------------------|
D|--------------------------------------|
A|--8-x-8-x-8-x-8-11-11-11-11-11--|
E|--6-x-6-x-6-x-6-9--9--9--9--9---|

e|-------------------------------|
B|-------------------------------|
G|-------------------------------|
D|-------------------------------|
A|--4-2-2--2--4-2-2--4-2-4-5-5---|
E|--2-0-0--0--2-0-0--2-0-2-3-3---|

e|-------------------------------|
B|-------------------------------|
G|-------------------------------|
D|-------------------------------|
A|-------------------------------|
E|--2-0-0-----2-0-0------2-3-3---|

e|-------------------|
B|-------------------|
G|-------------------|
D|-------------------|
A|-------------------|
E|--2^3-3-3-3^2-2-2--|

Tabbed by Vogi ([email protected])


Текст, аккорды и табулатура для песни "Bleed", исполняет "SoulFly".
Используемые в песне аккорды можно найти в разделе Как брать аккорды. Аккорды для шестиструнной гитары. Другие песни можно найти на нашем сайте, воспользовавшись алфавитным указателем вверху страницы.


 
Ошибка в тексте? Выделите ошибку и нажмите Ctrl+Enter