#----------------------------------PLEASE NOTE---------------------------------#
#This file is the author's own work and represents their interpretation of the #
#song. You may only use this file for private study, scholarship, or research. #
#------------------------------------------------------------------------------##
Soul Asylum - Misery 
from Let Your Dim Light Shine


                                                         verses
|----------|-------------|----------|-----------------|---------|-------|
|----------|-------------|----------|-----------------|---------|-------|
|---3------|-------------|--3-------|-----------0-----|--3---3--|-2--2--|
|----------|----------3--|----------|----0h3--------3-|---------|-------|
                                                                        
                                                                        
|----------|---------|---------|--------|---------|--------------------|
|----------|---------|---------|--------|---------|--------------------|
|--0---0---|---------|-3---3---|--------|--0---0--|--0---0---0--2------|
|----------|-1---1---|---------|-0---0--|---------|--------------------|
                                                                        

Pre-choruses
        no repeat 1st time                                              
||---------------------------|------------------------|-------------------
||o--------------------------|------------------------|-------------------
||o--3--3--3--3--3--3--3--3--|------------------------|-------------------
||---------------------------|-3--3--3--3--3--3--3--0-|-1--1--1--1--1--1--
                                                                        
                                                                        
--------||------------------------|------------------------|------------
-------o||------------------------|------------------------|-3--3--2----
-------o||--------------------/5--|------------------5--3--|----------3-
--1--1--||-1--1----1----1--1------|--1--1----1----1--------|------------
                                                                        
                                                                        
-----|------------------|------------------------|---------------------|
-----|------------------|------------------------|---------------------|
--5--|-3----2----2--0---|------------------------|---------------------|
-----|------------------|-3--3--3--1----1--1--0--|----0--0--3----3--3--|
                                                                        
                                                                        
Chorus

|----------------------|------------------|----------------------------|
|----------------------|------------------|----------------------------|
|-3--3-----------------|---------------0--|--3---3---------------------|
|---------3----3----1--|--1----1---3------|----------3-----3---3---5---|
                                                                        
                                                                        
|-------------------|-------------------------|------------------------|
|-------------------|-------------------------|------------------------|
|-------------------|--3--3--3--5-----5-5--7--|--7--8----8--7----------|
|---5----1----1--1--|-------------------------|------------------------|
                                                                        
                        2nd time                                        
|-----------------|-------------|--------------------------------------|
|-----------------|-------------|--------------------------------------|
|--3--------------|-------------|--------------------------------------|
|-------3------1--|-------------|--------------------------------------|
                                                                        
                                                                        
Guitar Solo

|---------------|-----------------|----------------|-------------------|
|---------------|-----------------|----------------|-------------------|
|---------------|-----------------|-5---4----4--4--|--2--4---5--5------|
|-5--5----5--5--|-0----0----0--0--|----------------|-------------------|


|----------------|----------------|-------|----------------------------|
|----------------|----------------|-------|----------------------------|
|--0---0---0--0--|----------------|-------|----------------------------|
|----------------|--0---0---0--0--|---2---|----------------------------|
                                                                        

Frustrated                      Incorporated...
                                                                        
||----------------------------|------------------------|----------------
||o---------------------------|------------------------|----------------
||o---3--3--3--3--3--3--3--3--|------------------------|----------------
||----------------------------|-3--3--3--3--3--3--3--3-|-1--1--1--1--1--
                                                                        
                                                                        
-----------|----------------------------||-----------------------------|
-----------|---------------------------o||o----------------------------|
-----------|---------------------------o||o--3--3--3--3--3--3--3--3----|
--1--1--1--|--1--1--1--1--1--1--1--1----||-----------------------------|
                                                                        
                                                                        
|--------------------------|-------------------------|------------------
|--------------------------|-------------------------|------------------
|--------------------------|-------------------------|------------------
|--3--3--3--3--3--3--3--3--|-1--1--1--1--1--1--1--1--|-1--3--5--1--1--3-
                                                                        
                                                                        
-------||----------------------|---------------------------------------|
------o||----------------------|---------------------------------------|
------o||--3--3--3--3----3--3--|--/10--10--10--10----10--10--10--------|
---5---||----------------------|---------------------------------------|
                                                                        
                                                                        
|------------------------|-------------------|-------------------------|
|------------------------|-------------------|-------------------------|
|--8--8-------8--8-------|-8--8-------8--7--|-3--3--3--3----3--3------|
|----------8----------8--|---------8---------|-------------------------|
                                                                        
                                                                        
|--------------------------------|------------------------|-------------
|--------------------------------|------------------------|-------------
|-/10--10--10--10----10--10--10--|-8--8--8--7----7--5--5--|-8--8--8--7--
|--------------------------------|------------------------|-------------
                                                                        
                                                                        
--------------|-------------------------|------------------------------|
--------------|-------------------------|------------------------------|
--7--7--5--5--|-3--3--3--3--3--3--3--3--|--5--5--5--5--5--5--5--5------|
--------------|-------------------------|------------------------------|
                                                                        
                                                                        
|-------------------------|--------------------------|------------------
|-------------------------|--------------------------|------------------
|-8--8--8--8--8--8--8--8--|-8--8--8--7--7--7--5--5---|-3--3--3--3--3--3-
|-------------------------|--------------------------|------------------


---------|-------------------------|---------------------|--------------|
---------|-------------------------|-3--2--0-------------|--------------|
--3--3---|-------------------------|----------3----2--0--|-0------------|
---------|-3--3--3--3--3--3--3--3--|---------------------|----3--1--1--3|
                                                                        
                                                                        
|--------------------------|-------------------------------|------------
|--------------------------|-------------------------------|------------
|--3--3--3--3--3--3--3--3--|-/10--10--10--10---10--10--10--|-8--8-----8-
|--------------------------|-------------------------------|-------8----
                                                                        
                                                                        
---------|---------------------|------------------|---------------------
---------|---------------------|------------------|---------------------
--8------|-8--8-------8--8--7--|-3--3--3--3---3-3-|-/10--10--10--10--10-
------8--|---------8-----------|------------------|---------------------
                                                                        
                                                                        
----------|-------------------------|------------------------|---------|
----------|-------------------------|------------------------|---------|
--10--10--|--8--8--8--7----7--5--5--|-8--8--8--7----7--5--5--|--3------|
----------|-------------------------|------------------------|---------|
                                                                        
                                                                        
=======================================================================
h = hammeron                    Judy Letostak                         
p = pulloff                     Internet [email protected]
/ = slide                      Fidonet 1:202/762                     
x = ghost note                  MetalNet 182:100/2                    
t = tap (right hand)            The Music Shop BBS (619)423-4970 24hrs
~ = vibrato                     * = picked harmonic
bf = bend full                  tr = trill
rb = release bend               p.s. = pick scrape
dive = dive with bar            b = bend / step written over note
========================================================================
The Music Shop BBS (619)423-4970  24hrs
Guitar Tab, Bass Tab, Lyrics, Sound Files, Pictures, BRE...LORD...FidoNet...
MetalNet...In a band?  Want some exposure?  I have a file area for bands
will take anything that can be put on a computer...Lyrics, pictures, sound
files, gig ads...email me or call my bbs.  It's free, and access is free.
Also have a menu for band to put up Biographies, reviews of shows, demos,
gig advertisements, and you can sell your demo/CD here as well...And it's
absolutely FREE!


Текст, аккорды и табулатура для песни "Misery", исполняет "Soul Asylum".
Используемые в песне аккорды можно найти в разделе Как брать аккорды. Аккорды для шестиструнной гитары. Другие песни можно найти на нашем сайте, воспользовавшись алфавитным указателем вверху страницы.


 
Ошибка в тексте? Выделите ошибку и нажмите Ctrl+Enter