Guitar 1:
e-----------------------------------------------------------------------------
B-----------------------------------------------------------------------------
G---9-9-9---9---9-9-9-8-8-8---8---8-8-8---------------------------------9-9---
D---9-9-9---9---9-9-9-8-8-8---8---8-8-8-7-7-7---7---7-7-7-7-7-7---7---7-9-9---
A---7-7-7---7---7-7-7-6-6-6---6---6-6-6-7-7-7---7---7-7-7-7-7-7---7---7-7-7---
E---------------------------------------5-5-5---5---5-5-5-5-5-5---5---5-------

Guitar 2:
e-----------------------------------------------------------------------------
B---8---------------8-7---------------7---------------------------------------
G---------------------------------------5-------------------------------------
D-----------------------------------------------------------------------------
A-----------------------------------------------------------------------------
E-----------------------------------------------------------------------------


Guitar 1:
e-----------------------------------------------------------------------------
B-----------------------------------------------------------------------------
G-----------------------------------------------------------------------------
D-----------------------------------------------------------------------------
A---4-4---4-4---4-4---4-4-----------------------------------------------------
E---2-2---2-2---2-2---2-2-----------------------------------------------------

Guitar 2:
e-----------------------------------------------------------------------------
B------/5----/8----/5----/8---------------------------------------------------
G-----------------------------------------------------------------------------
D-----------------------------------------------------------------------------
A-----------------------------------------------------------------------------
E-----------------------------------------------------------------------------




Solo:

Guitar 1:
e---00000000--------000000----------00000000--------0000222233335555----------
B-----------44444444------4411111111--------44444444--------------------------
G-----------------------------------------------------------------------------
D-----------------------------------------------------------------------------
A-----------------------------------------------------------------------------
E-----------------------------------------------------------------------------

Guitar 2:
e---00000000--------000000--2222222200002222333322223333222233335555----------
B-----------44444444------44--------------------------------------------------
G-----------------------------------------------------------------------------
D-----------------------------------------------------------------------------
A-----------------------------------------------------------------------------
E-----------------------------------------------------------------------------



Guitar 1:
e---5h8p5-5h8p5-5h8p5-5h8p5-7---------------------5h8p5-5h8p5-5h8p5-5h8p5-7---
B-----------------------------------------------------------------------------
G-----------------------------------------------------------------------------
D-----------------------------------------------------------------------------
A-----------------------------------------------------------------------------
E-----------------------------------------------------------------------------

Guitar 2:
e---8-----------------------7---------------------8----------b10--------8-7---
B-----------------------------------------------------------------------------
G-----------------------------------------------------------------------------
D-----------------------------------------------------------------------------
A-----------------------------------------------------------------------------
E-----------------------------------------------------------------------------



Guitar 1:
e---5h8p5-5h8p5-5h8p5-5h8p5-7---------------------5h8p5-5h8p5-5h8p5-5h8p5-7---
B-----------------------------------------------------------------------------
G-----------------------------------------------------------------------------
D-----------------------------------------------------------------------------
A-----------------------------------------------------------------------------
E-----------------------------------------------------------------------------

Guitar 2:
e---8-----------------------7---------------------8----------b10--------8-7---
B-----------------------------------------------------------------------------
G-----------------------------------------------------------------------------
D-----------------------------------------------------------------------------
A-----------------------------------------------------------------------------
E-----------------------------------------------------------------------------


Guitar 1:
e---77777777777777777777777777777777777777777777777777777777777777777777777---
B-----------------------------------------------------------------------------
G-----------------------------------------------------------------------------
D-----------------------------------------------------------------------------
A-----------------------------------------------------------------------------
E-----------------------------------------------------------------------------

Guitar 2:
e---77777777777777777777777777777777777777777777777777777777777777777777777---
B-----------------------------------------------------------------------------
G-----------------------------------------------------------------------------
D-----------------------------------------------------------------------------
A-----------------------------------------------------------------------------
E-----------------------------------------------------------------------------


Текст, аккорды и табулатура для песни "White Kross", исполняет "Sonic Youth".
Используемые в песне аккорды можно найти в разделе Как брать аккорды. Аккорды для шестиструнной гитары. Другие песни можно найти на нашем сайте, воспользовавшись алфавитным указателем вверху страницы.


 
Ошибка в тексте? Выделите ошибку и нажмите Ctrl+Enter