Song: Sunday
Artist: Sonic Youth
Album: A Thousand Leaves

Bass Tab - Standard Tuning (E,A,D,G)

Tabbed by Alex ([email protected])


Intro:  (I don't know sure if the bass plays this, but just in case you want to play it...)                                                                      
G|------------------|------------------|------------------|------------------|
D|-------3----------|-------3----------|-------6----------|-------6----------|
A|----3-----3--4----|----3-----3--4----|----6-----6--7----|----6-----6--7----|
E|-1----------------|-1----------------|-4----------------|-4----------------|
                                                                        
G|------------------|------------------|------------------|------------------|
D|-------3----------|-------3----------|-------8----------|-------8----------|
A|----3-----3--4----|----3-----3--4----|----8-----8--9----|----8-----8--9----|
E|-1----------------|-1----------------|-6----------------|-6----------------|

G|---------------|---------------|---------------|---------------|
D|---------------|---------------|---------------|---------------|
A|-6-6--6-6-6--6-|-6-6--6-6-6--6-|-9-9--9-9-9--9-|-9-9--9-9-9--9-|
E|---------------|---------------|---------------|---------------|

G|---------------|---------------|---------------|---------------|
D|---------------|---------------|---------------|---------------|
A|-6-6--6-6-6--6-|-6-6--6-6-6--6-|---------------|---------------|                                                                          
E|---------------|---------------|-7-7--7-7-7--7-|-7-7--7-7-7--7-|

(Repeat from the top)                                                                        


Second time, end with
                                                                          
G|---------------|---------------|
D|---------------|---------------|
A|---------------|---------------|
E|-4-4--4-4-4--4-|-4-4--4-4-4--4-|


Verse:                                                                           
G|---------------|---------------|---------------|---------------|
D|---------------|---------------|---------------|---------------|
A|---------------|---------------|---------------|---------------|
E|-1-1--1-1-1--1-|-1-1--1-1-1--1-|-1-1--1-1-1--1-|-1-1--1-1-1--1-|

G|---------------|---------------|---------------|---------------|
D|---------------|---------------|---------------|---------------|
A|---------------|---------------|---------------|---------------|
E|-1-1--1-1-1--1-|-1-1--1-1-1--1-|-4-4--4-4-4--4-|-4-4--4-4-4--4-|


Noise:
G|---------------|
D|---------------| 
A|---------------| repeat ad nauseum
E|-1-1--1-1-1--1-|


End of noise:
G|---------------|---------------|---------------|-----------------|
D|---------------|---------------|---------------|-----------------|
A|---------------|---------------|---------------|-------------1-1-|
E|-1-1--1-1-1--1-|-1-1--1-1-1--1-|-1-1--1-1-1--1-|-1-1--1-4-4------|

Back to verse


Текст, аккорды и табулатура для песни "Sunday", исполняет "Sonic Youth".
Используемые в песне аккорды можно найти в разделе Как брать аккорды. Аккорды для шестиструнной гитары. Другие песни можно найти на нашем сайте, воспользовавшись алфавитным указателем вверху страницы.


 
Ошибка в тексте? Выделите ошибку и нажмите Ctrl+Enter