verso 2
G--Piano-Intro--|--Verso-1-&-Bridge--|----------------------------------------------|
D----(18-sec)---|----(Piano-&-Voc.)--|----------------------------------------------|
A---------------|--------------------|---0---------------0--------2---------3-------|
E---------------|--------------------|----------------------------------------------|

G-----------------------------------------------------------------------------------|
D-----------------------------------------------------------------------------------|
A-----3--------------5--------------------------------------------------------------|
E-------------------------------------------------3---------------3-----------------|


G-----------------------------------------------------------------------------------|
D-----------------------------------------------------------------------------------|
A--0---------------0---------2--------3---------------3-----------------5-----------|
E-----------------------------------------------------------------------------------|

                                                      Bridge
G---------------------------------------------------|-------------------------------|
D---------------------------------------------------|-------------------------------|
A---------------------------------------------------|-------------------------------|
E-----------------3---------------3-----------------|---1-----------------3---------|

-
G-----------------------------------------------------------------------------------|
D-----------------------------------------------------------------------------------|
A--------0---------------0----------------------------------------------------0-----|
E------------------------------------------1-----------------3----------------------|


G-----------------------------------------------------------------------------------|
D---------------------------------------------------------------10--------9---------|
A-----------0-----------------------------------------------------------------------|
E----------------------------1----------------3-------------------------------------|


G-----------------------------------------------------------------------------------|
D---------------------------------------------------------------------------------~-|
A--0--------------------------------------------------------------------------------|
E-----------3---------1-----------------1----------------3---------------3----------|

  Coro
G-----------------------------------------------------------------------------------|
D----------2-2---------------0----0------0-------------2--------------2-2-----------|
A--3----3------------------------------------0----0------0----3----3----------------|
E----------------3-----3----------------------------------------------------3----3--|


G-----------------------------------------------------------------------------------|
D-3---------5----------------------------------------2-2----------------5----0------|
A----------------------0--------2------------3----3---------------------------------|
E-----------------------------------------------------------3--3--3---3-------------|

                                                                          

G-------------------------------------------------------------------------|
D------------------------------------------5---3------/-5------/-7--------|
A-------0---------3-------------------------------------------------------|
E-------------------------------3-----------------------------------------|


interludio
G-----------------------------------------------------------------------------------|
D----------------------------------------------------------2------------------------|
A---------------------------0----------------3--------------------------------------|
E----------1---------------------------------------------------------------------1--|

                                                                   
G---------------------------------------------------------------~--|
D-3--------------------------2---------5-----------5~~--3-----3-~--|
A--------------0---------------------------------------------------|
E------------------------------------------------------------------|



            solo guitarra
G---------------------------------------------------------------~~-------------------|
D*----------------------------------------------------------------------------------*|
A*--0--------0---------3--------3---------------------------------------------------*|
E-----------------------------------------0----------0-------------3--------3--------|



 coro 2                                                        
G--------------------------|
D--------------------------|
A-----3-----------5--------|
E-----------3-----------5--|



G-----------------------------------------------------------------------------------|
D-----------------------------------------------------------------------------------|
A--3---------------------0--/--2--/--3---------5-----------3---------------------0--|
E-------3----1--/--3----------------------3----------5----------3----1--/--3--------|
                                                 _______________________ ___________
                                                |1.                     |2. piano
G--------------|--------------------------------|-----------------------|-----------|
D--------------|*-------------------------------|----------------------*|----3------|
A-/--2--/--3--|*---3---------5---------3-------|-------------0--/--2--*|-----------|
E--------------|---------3---------5---------3--|-1--/--3---------------|-----------|

 
E-------------------------------||
B-----------------------~~------||
G-------------------------------||fin
D-/-5---------/--7--------------||
A-------------------------------||
E-------------------------------||

ya sake tallulah por ke me la pidieron (pia kreo ke es asi) y wea y vamos a
tokar en el san marco el 27 de abril [email protected]


Текст, аккорды и табулатура для песни "Tallulah", исполняет "Sonata Arctica".
Используемые в песне аккорды можно найти в разделе Как брать аккорды. Аккорды для шестиструнной гитары. Другие песни можно найти на нашем сайте, воспользовавшись алфавитным указателем вверху страницы.


 
Ошибка в тексте? Выделите ошибку и нажмите Ctrl+Enter