Artist    : SONATA ARCTICA
Song      : SILVER TONGUE
Album     : Winterheart's Guild

Tabbed by : Torgeir Tjong ( [email protected] )
Day tabbed: 22.01.2004

I know the solos aren't completely right, 
feel free to send corrections.


--------------------------------------------------------------------

  Tune down 1/2 step!

  Intro
e:-------------------------------------------------------------------------|
B:-------------------------------------------------------------------------|
G:-------------------------------------------------------------------------|
D:--9-----------5-----------7-----------7-----------9-----------5----------|
A:--9-----------5-----------7-----------7-----------9-----------5----------|
E:--7--7-7-7-7--3--3-3-3-3--5--5-5-5-5--5--5-5-5-5--7--7-7-7-7--3--3-3-3-3-|
     pm.......   pm.......   pm.......   pm.......   pm.......   pm.......




e:-------------------------------------------------------------------------|
B:-------------------------------------------------------------------------|
G:-------------------------------------------------------------------------|
D:-7-----------8-----------9-----------5-----------7-----------7-----------|
A:-7-----------9-----------9-----------5-----------7-----------7-----------|
E:-5--5-5-5-5--6--6-6-6-6--7--7-7-7-7--3--3-3-3-3--5--5-5-5-5--5--5-5-5-5--|
    pm.......   pm.......   pm.......   pm.......   pm.......   pm.......



                                              Verse
e:-----------------------------------------|-------------------------------|
B:-----------------------------------------|-------------------------------|
G:-----------------------------------------|-------------------------------|
D:9-----------5-----------7-----------7----|-------------------------------|
A:9-----------5-----------7-----------7----|--2----------------------------|
E:7--7-7-7-7--3--3-3-3-3--5--5-5-5-5--5----|--0--0-0-0-0-0--0-0-0--0--0-0-0|
   pm.......   pm.......   pm.......           pm................pm........




e:-------------------------------------------------------------------------|
B:-------------------------------------------------------------------------|
G:-------------------------------------------------------------------------|
D:-------------------------------------------------------------------------|
A:-------------2--2-2-2-2-2--2-2-2--5--5-5-5-5-5--5-5-5--2-----------------|
E:-0-0--0-0-0--------------------------------------------0--0-0-0-0-0--0-0-|
  ...........pm...................pm...................   pm...............



                                              *2
e:-----------------------------------------------|-------------------------|
B:-----------------------------------------------|-------------------------|
G:------------------------7----------------------|-----------------3---4---|
D:------------------------7----------------------|--5---4---2------3---4---|
A:------------------------5----5-7-5-------7-----|--5---4---2------1---2---|
E:0--0--0-0-0-0-0--0-0-0-------------9--7--5~----|--3---2---0--------------|
  .pm...................



                 second ending
e:---|---------|--17-----------------------------------------------------|
B:---|---------|-------/15-17-15-12--17----------------------------------|
G:6--|--Verse--|--------------------------/14-16-14-12--16-11-12-14-12-11-|
D:6--|--(*2)---|-----------------------------------------------------------|
A:4--|---------|-----------------------------------------------------------|
E:---|---------|-----------------------------------------------------------|




                                     Pre-Chorus 1
e:----|---------------------------|----------------------------------------|
B:----|---------------------------|----------------------------------------|
G:----|----------------3---4---6--|---------4---------------------------4--|
D:14--|--5---4---2-----3---4---6--|--2------4------7------5------2------4--|
A:----|--5---4---2-----1---2---4--|--2------2------7------5------2------2--|
E:----|--3---2---0----------------|--0-------------5------3------0---------|





e:-------------------------------------------------------------------------|
B:-------------------------------------------------------------------------|
G:-------------------------------------------------------------------------|
D:----7------5------2-----------2-----------4-----------4-----------5------|
A:----7------5------2-----------2-----------4-----------4-----------5------|
E:----5------3------0--0-0-0-0--0--0-0-0-0--2--2-2-2-2--2--2-2-2-2--3--3-3-|
                     pm.......   pm.......   pm.......   pm.......   pm....



                                              Chorus
e:-----------------------------------------|-------------------------------|
B:-----------------------------------------|-------------------------------|
G:-----------------------------------------|-------------------------------|
D:-----5-----------7-----------7-----------|--9-----------5-----------7----|
A:-----5-----------7-----------7-----------|--9-----------5-----------7----|
E:3-3--3--3-3-3-3--5--5-5-5-5--5--5-5-5-5--|--7--7-7-7-7--3--3-3-3-3--5--5-|
  ...   pm.......   pm.......   pm.......      pm.......   pm.......   pm..




e:-------------------------------------------------------------------------|
B:-------------------------------------------------------------------------|
G:-------------------------------------------------------------------------|
D:-------7-----------9-----------5-----------7-----------8-----------9-----|
A:-------7-----------9-----------5-----------7-----------9-----------9-----|
E:5-5-5--5--5-5-5-5--7--7-7-7-7--3--3-3-3-3--5--5-5-5-5--6--6-6-6-6--7--7-7|
  .....   pm.......   pm.......   pm.......   pm.......   pm.......   pm...




e:-------------------------------------------------------------------------|
B:-------------------------------------------------------------------------|
G:-------------------------------------------------------------------------|
D:------5-----------7-----------7-----------9-----------5-----------7------|
A:------5-----------7-----------7-----------9-----------5-----------7------|
E:-7-7--3--3-3-3-3--5--5-5-5-5--5--5-5-5-5--7--7-7-7-7--3--3-3-3-3--5------|
  ....   pm.......   pm.......   pm.......   pm.......   pm.......



             A.H.
e:|----------------|-----------|---------------------------|---------------|
B:|----------------|-----------|---------------------------|---------------|
G:|---Verse--------|---Verse---|----------------3---4---6--|---Pre-Chorus--|
D:|-----------9----|-----------|--5---4---2-----3---4---6--|---------------|
A:|----------------|-----------|--5---4---2-----1---2---4--|---------------|
E:|----------------|-----------|--3---2---0----------------|---------------|




                   Chorus 2
e:-|------------|----------------------------------------------------------|
B:-|------------|----------------------------------------------------------|
G:-|---Chorus---|--9----5----7--------9----5----7----8----9----5----7----9-|
D:-|------------|--9----5----7--------9----5----7----9----9----5----7----9-|
A:-|------------|--7----3----5--------7----3----5----6----7----3----5----7-|
E:-|------------|----------------------------------------------------------|




                   Keyboard solo
e:--------------|----------------------------------------------------------|
B:--------------|----------------------------------------------------------|
G:---5----7-----|----------------------------------------------------------|
D:---5----7-----|--9-----------9-----------9-----------7-----------9-------|
A:---3----5-----|--9-----------9-----------9-----------7-----------9-------|
E:--------------|--7--7-7-7-7--7--7-7-7-7--7--7-7-7-7--5--5-5-5-5--7--7-7-7|
                    pm.......   pm.......   pm.......   pm.......   pm.....




e:-------------------------------------------------------------------------|
B:-------------------------------------------------------------------------|
G:----------------------------------------------------------------7--------|
D:----9-----------9-----------4-----------5-----------5-----------7--------|
A:----9-----------9-----------4-----------5-----------5-----------5--5-5-5-|
E:-7--7--7-7-7-7--7--7-7-7-7--2--2-2-2-2--3--3-3-3-3--3--3-3-3-3-----------|
  ..   pm.......   pm.......   pm.......   pm.......   pm.......   pm......




e:----------------------------------------------------------------|--------|
B:----------------------------------------------------------------|--------|
G:---7-----------9-----------9-----------6-----------2------------|--9b(11)|
D:---7-----------9-----------9-----------7-----------2------------|--------|
A:5--5--5-5-5-5--7--7-7-7-7--7--7-7-7-7--4--4-4-4-4--0--0-0-0-0---|--------|
E:----------------------------------------------------------------|--------|
  .   pm.......   pm.......   pm.......   pm.......   pm.......



                 |pre-dip wit tremolo  | hit,dip and release with tremolo
e:---------------|---------------------|-----------------------------------|
B:-------------------------------------------------------------------------|
G:-9b(11)--7-9-7----------------------------------7w(6-7)--9w(7-9)--11w(9-1|
D:----------------/9----/7----------/9---9w(8-9)---------------------------|
A:----------------------------/9----/9-------------------------------------|
E:----------------------------------/7-------------------------------------|




    |  pre dip with trem| with whammy |
e:--|-------------------|-------------|------------------------------------|
B:-----/15---/14---/15----17b(19)r~~~---------------7----------------------|
G:1)------------------------------------------7p6-----9p7p6----------7-9--7|
D:--------------------------------------9p7h9-----7---------7h9--7-9-9-9--9|
A:-------------------------------------------------------------------------|
E:-------------------------------------------------------------------------|




           A.H.      T
e:---------------12t14p12p10p7--------------------------14h18p14-----------|
B:-----------------------------87-------------------14----------14--------|
G:--7-11-9--7----------------------9p76----------15----------------15-----|
D:---------------------------------------9p7---16----------------------16--|
A:-------------------------------------------------------------------------|
E:-------------------------------------------------------------------------|




                                 Harmony solo
e:---------14h18p14-----------|--------------------------------------------|
B:------14----------14--------|--12p0-10p0-12p0----------10h12-12----------|
G:---15----------------15-----|-----------------11h12h14------------11-----|
D:16----------------------16--|----------------------------------------12h1|
A:----------------------------|--------------------------------------------|
E:----------------------------|--------------------------------------------|





e:-------------------------------------------------------------------------|
B:-------------------------------------------------------------------------|
G:--11-------11-----------------------11-14h16p14p1211--------------------|
D:4----12h14----14p12p11--------12h14-------------------14-12-14-12-11--12p|
A:-----------------------14p12---------------------------------------------|
E:-------------------------------------------------------------------------|




                                                             T
e:----------------------------------------------------12h14t19p14p12-------|
B:-------------------------------------------------12----------------12----|
G:----------------------------------------------12----------------------12-|
D:0-11p0-12p0-11h12p11-----------------------14----------------------------|
A:---------------------14-12--------------14-------------------------------|
E:---------------------------15-14--12h15----------------------------------|





e:-------------------------------------------------------------------------|
B:----15p0-14p0-17p0-15p0-14p0-15p0--14p0-15p0-17p0-19p0-17p0-15p0--14h15p1|
G:-------------------------------------------------------------------------|
D:14-----------------------------------------------------------------------|
A:-------------------------------------------------------------------------|
E:-------------------------------------------------------------------------|





e:--------------------------------|----------------------------------------|
B:4-12----------------------------|----------------------------------------|
G:-----14-1211-------------------|----------------------------------------|
D:--------------9h10p9------------|--2-----------2-----------4-----------4-|
A:--------------------12-10-9-10--|--7-----------2-----------4-----------4-|
E:--------------------------------|--0--0-0-0-0--0--0-0-0-0--2--2-2-2-2--2-|
                                      pm.......   pm.......   pm.......   p



                                                               Chorus
e:----------------------------------------------------------|--------------|
B:----------------------------------------------------------|--------------|
G:----------------------------------------------------------|--------------|
D:----------5-----------5-----------7-----------7-----------|--9-----------|
A:----------5-----------5-----------7-----------7-----------|--9-----------|
E:-2-2-2-2--3--3-3-3-3--3--3-3-3-3--5--5-5-5-5--5--5-5-5-5--|--7--7-7-7-7--|
  m.......   pm.......   pm.......   pm.......   pm.......      pm.......




e:-------------------------------------------------------------------------|
B:-------------------------------------------------------------------------|
G:-------------------------------------------------------------------------|
D:5-----------7-----------7-----------9-----------5-----------7-----------8|
A:5-----------7-----------7-----------9-----------5-----------7-----------9|
E:3--3-3-3-3--5--5-5-5-5--5--5-5-5-5--7--7-7-7-7--3--3-3-3-3--5--5-5-5-5--6|
   pm.......   pm.......   pm.......   pm.......   pm.......   pm.......



          *3
e:-----------|-------------------------------------------------------------|
B:-----------|-------------------------------------------------------------|
G:-----------|-------------------------------------------------------------|
D:-----------|--9-----------5-----------7-----------7-----------9----------|
A:-----------|--9-----------5-----------7-----------7-----------9----------|
E:--6-6-6-6--|--7--7-7-7-7--3--3-3-3-3--5--5-5-5-5--5--5-5-5-5--7--7-7-7-7-|
  pm.......      pm.......   pm.......   pm.......   pm.......   pm.......



                                                                  Outro
e:-------------------------------------------------------------|-----------|
B:-------------------------------------------------------------|-----------|
G:-------------------------------------------------------------|-----------|
D:-5-----------7-----------------------8-----------------------|--------9--|
A:-5-----------7-----------------------9-----------------------|--------9--|
E:-3--3-3-3-3--5--5-5-5-5-5-5-5-5-5-5--6--6-6-6-6-6-6-6-6-6-6--|--7-7-7-7--|
    pm.......   pm...................   pm...................




e:-------------------------------------------------------------------------|
B:-------------------------------------------------------------------------|
G:-------------------------------------------------------------------------|
D:-------9---------9---------7---------9---------9--------9---------4------|
A:-------9---------9---------7---------9---------9--------9---------4------|
E:-7-7-7-7---7-7-7-7---5-5-5-5---7-7-7-7---7-7-7-7--7-7-7-7---2-2-2-2---3-3|





e:-------------------------------------------------------------------------|
B:----------------------------------------------------------7-8-7---7------|
G:-----------------------7---------7---------9---------9----------9---9-7-9|
D:---5---------5---------7---------7---------9---------9----6--------------|
A:---5---------5---5-5-5-5---5-5-5-5---7-7-7-7---7-7-7-7----4--------------|
E:-3-3---3-3-3-3-----------------------------------------------------------|


                                
                                

e:------------------------|-----|
B:---------7--------------|-----|
G:-7-6-7-6---9-7-6--------|--End|
D:-----------------9-7-9-|-----|
A:------------------------|-----|
E:------------------------|-----|


Текст, аккорды и табулатура для песни "Silver Tongue", исполняет "Sonata Arctica".
Используемые в песне аккорды можно найти в разделе Как брать аккорды. Аккорды для шестиструнной гитары. Другие песни можно найти на нашем сайте, воспользовавшись алфавитным указателем вверху страницы.


 
Ошибка в тексте? Выделите ошибку и нажмите Ctrl+Enter