***************************************************************
* SONATA ARCTICA - LETTER TO DANA (From the album: ECLIPTICA) *
***************************************************************
 Music and Words By: Sonata Arctica

Transcribed By: Niclas Buss
Days tabbed: 1.4.2000
email: [email protected] 

Please mail me if you can find mistakes!

-----------------------------------------

 Tune down 1/2 step!

  Clean Sound
E------0----------3----------0-----------3------------0---------3----------0-------|
B--------0----------3----------1-----------2------------0---------3----------1-----|
G----------0----------4----------0-----------3------------0---------4-----------0--|
D----------------------------------2---------0----------------------------------2|
A-----------------------5-3-------------------------------------------5-3----------|
E--0-----------3-----------------------------------0---------3---------------------|

E--------0---------3----------0----------3------------0---------3----------------0-|
B----------0---------3----------1----------2------------0---------3------------1---|
G------------0---------4----------0----------3------------0---------4--------0-----|
D~~---------------------------------2-0-------0---------------------------2-------|
A------------------------5-3------------------------------------------5-3---------|
E----0----------3----------------------------------0---------3---------------------|

		   end Intro   Verse 1
E----------------0----------||-------0--------3-----------0-----------------3------|
B-1------------1---1--------||----------0-------2-----------0----------3------3----|
G---0~-------0-------0~~----||--------------------3-----------0----------0------0--|
D----------2----------------||-------------0--------0-----------2------------------|
A--------3------------------||-----------------------------------------------------|
E---------------------------||---0---------------------0-----------/3--------------|

E-------------------0-------------0--------------------0---------------------3-----|
B-----1---------------0-------------1----1---------------0-------------3--------3--|
G-------2---------------0--------------2----2--------------0-------------0---------|
D---------2---------------2--------------------2--------------2~~------------------|
A--0--------0-----------------0----------------------------------------------------|
E---------------0-------------------------------------------------3--------------|

E----------3-----/3p2-------------0-------------3---------0----------------------3-|
B------------2--------3--------------0------------2---------0-----------3----------|
G--0-----------3--------2~~-------------------------3---------0-----------0--------|
D-------0----------------------------------/0-------------------2-------------0----|
A----------------------------------------2-----------------------------------------|
E-----------------------------0------------------------0------------/3-------------|

E-----------------------0----------0-------------------0---------------------3-----|
B-3--------1--------------0----------1----1--------------0-----------3----------3--|
G----0-------2--------------0-----------2----2-------------------------0-----------|
D--------------2--------------------------------2--------------------------0-------|
A-------0--------0--------------0----------------------------2~--------------------|
E-------------------0-------------------------------------------3----------------|

			    Two Guitars:
E-------------2--------------------------------------------------------------------|
B-----------3---3---3~~---|------------10-----/12-10h12p10-------------------------|
G-0-------2-------2-------|---9-11-12-----12---------------12--9--11-12-11~~--9-11|
D-----------------------|------------------------------------5---------7---------|
A-------------------------|---------2-----------5--------------3---------5---------|
E-----------------------------------0-----------3----------------------------------|

				    Three Guitars:
E----------------------------------------------------------------------------------|
B-----10-----/12-10h12p10-------------8-10-12--13-12--/15-13h15p13--12--8--10-12-10|
G-12-----12---------------12---9~~----9-11-12--14-12--/16-14h16p14--12--9--11-12-11|
D------------------------------5~~--------------------------------------5---------7|
A--2----------5----------------3~~----------2-----------5---------------3---------5|
E--0----------3-----------------------------0-----------3--------------------------|

						Verse 2
E-----------------------------------------------Guitar-enters-at-


Текст, аккорды и табулатура для песни "Letter To Dana", исполняет "Sonata Arctica".
Используемые в песне аккорды можно найти в разделе Как брать аккорды. Аккорды для шестиструнной гитары. Другие песни можно найти на нашем сайте, воспользовавшись алфавитным указателем вверху страницы.


 
Ошибка в тексте? Выделите ошибку и нажмите Ctrl+Enter