flauta:mi-re-fa-sol-fa-la-sol-fa-mi-re-fa-re-mi-re-fa-sol-la-sol-fa-mi/* por siacaso ajajj
                 verso
G--------------------------------------------------------|
D--------------------------------------------------------|
A------------------------------------3---------5---------|
E---------0-----------3----------------------------------|

				   
G----------------------------------------------------------------------------------|
D----------------------------------------------------------------------------------|
A------------------------------3~~--------------------------------------3---------5|
E--0----------3-----------------------------0-----------3--------------------------|

			
G~~-------------------------------------~~----|
D---------------------------------------~~---*|
A--------------------------------------3~~---*|
E----------0-----------3----------------------|

 verso 3                            
G--------------------------------------|
D-------5--------------------5---------|
A--7---------3----5-----7---------3----|
E--------------------------------------|

                                             coro
G-----------------------------------------|----------------------------------------|
D-----------5-------------------5--------*|---------~~-----------------------------|
A-3---/7---------3----5----7---------3---*|--3--2--0~~---/7-----3-----------0-2-0~-|
E-----------------------------------------|---------------------------3---3--------|

			   
G------------------------|
D-----------------------*|
A--7----5---5---5---5--*|
E------------------------|

guitara dolo 1
G*------------------------------------------*|| 
D*-------5-------------------5--------------*||
A---7---------3----5----7---------3----3-----||
E--------------------------------------------||

guitarra solo 2
G---------------------------------------------------------------------------------|| 
D--4-------------------4-------------------4-------------------4------------------||
A-------5----0----2---------0----7--------------5----0----2---------0----7----7---||
E-------------------------------------7-------------------------------------------||


G---------------------------------------------|
D---------------------------------------------|
A-7----7---5-----5---3----------------7----7|
E---------------------------0-----0-----------|


G----------------------------------------------------------------------------------|
D----------------------------------------------------------------------------------|
A--5----3----3----3----2---0-----------3----/-5----/-7-----0---------3--3-3-3---7-|
E---------------------------------3------------------------------3-----------------|

             

G-----------|
D----------*|
A--7-7-7---*|
E-----------|

solo guitarra 3
G-----------------------------------------------------------------|| 
D----------------------------------/5---5-------------------------*||
A--------------1-----3---3----5------------------------1---/-5----||
E--3-----1-----------------------------------1---1---------------||

teclado solo
G----------------------------------------------------------------------------------|
D-----------------------------4-2---------------------------------------------4-2--|
A--/-7----5----3----2----0--------5------2-3--5-----7----5----3----2----0---------5|
E------------------------------------3-5-------------------------------------------|

G----------------------------------------------------------------------------------|
D---------------------------------------------------------------------------------~|
A------2-3-2-------~~----/-3--2--0----~~-----3--2--0----~~-----3--2--0---/-5~~---5~|
E--3-5-------5---0~~----------------0~~---------------0~~-------------------------|


G-------------|| 
D~----~~------||
A~---7~~-----||
E-------------||

   verso 3
G|--------------------------------------------------------------------------|
D|-------5--------------------5-------------------5----------------5-------*|
A|--7---------3----5-----7---------3---3----/7---------3--5--7---------3---*|
E|--------------------------------------------------------------------------|
					 Chorus (2)

G|-------------------------------------------|
D|---------------------------------------~~--|
A|--x------------6-----8---------------6~~--|
E-------3----6----------------3----6---------|

										x3

G---------------------------------------|------------------------------------------|
D----------------------------------~~---|-----------------------------------------*|
A------------6----8---------------6~~---|-------------6----8--------------6----6--*|
E--3----6---------------3----6----------|---3----6--------------3----6-------------|


G----------------------------------------------|| fin
D-------------------------------------~--------||
A-------------6----8----------------6~~--------||
E--3----6---------------3-----6----------------||

denuevo yo jajaj markolix vovio pa preparar esta tab de 
sonata recuerden mi mail [email protected]
viva chile mierda!!!


Текст, аккорды и табулатура для песни "Letter To Dana", исполняет "Sonata Arctica".
Используемые в песне аккорды можно найти в разделе Как брать аккорды. Аккорды для шестиструнной гитары. Другие песни можно найти на нашем сайте, воспользовавшись алфавитным указателем вверху страницы.


 
Ошибка в тексте? Выделите ошибку и нажмите Ctrl+Enter