*********************************************************
* SONATA ARCTICA - FULLMOON (From the album: ECLIPTICA) *
*********************************************************
 Music and Words By: Sonata Arctica

Transcribed By: Niclas Buss
Day Tabbed: 26.3.2000
email: [email protected]

Please mail me if you can find mistakes!

-----------------------------------------

 Tune down 1/2 step!

			Verse 1 (guitar enter at 0:40)
E------------------------Acoustic-guitar:------------------------------------------|
B---------------------|--------------------3-----1--------1---1--0------------0-1--|
G--Intro-(Keyboards)--|----------------------2-----2--------2------1--------2------|
D---------------------|------------------------3-----3---3-----------2-------------|
A---------------------|---------------------------------------------------0--------|
E----------------------------------------------------------------------------------|

E----0--------------3---3~~--------------------------------------------------------|
B------1----------3---3------------------------------------------------------------|
G-2------2------------------Dist.on------------------------------------------------|
D----------2--/5----------------------5----------------2----5--------------2-------|
A------------------------------3-----3----5-----3-----0----3----5----3----0----2~~|
E------------------------------1----------3-----1---------------3----1---------0~~|

E----------------------------------------------------------------------------------|
B----------------------------------|-----------------------------------------------|
G----------------------------------|-----------------------------------------------|
D---/-2--4--5---7------------------|--2--------------------------------------------|
A---/-0--2--3---5-/7-8--7p5--------|--0--0-0-0--0-0-0--0-0-0--0-0-0--0-0-0--0-0-0--|
E---------------------------8-7~~--------------------------------------------------|
				       pm..........................................

E----------------------------------------------------------------------------------|
B----------------------------------------------------------------------------------|
G----------------------------------------------------------------------------------|
D----------------------------------------------------------------------------------|
A-0-0-0--0-0-0--0-0-0--0-0-0--0-0-0--0-0-0--0-0-0--0-0-0--0-0-0--0-0-0--0-0-0--0-0-|
E----------------------------------------------------------------------------------|
 ..................................................................................

								Verse 2
E----------------------------------------------------------------------------------|
B-------------------------------------------------------------|--------------------|
G-------------------------------------------------------------|*-------------------|
D----------------------------------------------/10---9--A.H.--|*--2----------------|
A-0--0-0-0--0-0-0--0-0-0--0-0-0--0-0-0--0-0-0--/8----7---11~--|---0--0-0-0--0-0-0--|
E----------------------------------------------------------------------------------|
 ............................................|			    pm.............

E----------------------------------------------------------------------------------|
B----------------------------------------------------------------------------------|
G----------------------------------------------------------------------------------|
D----------------------------------------------------------------------------------|
A-0-0-0--0-0-0--0-0-0--0-0-0--0-0-0--0-0-0--0-0-0--0-0-0--0-0-0--0-0-0--0-0-0--0-0-|
E----------------------------------------------------------------------------------|
 ..................................................................................

				       x2   Bridge
E----------------------------------------------------------------------------------|
B-----------------------------------------|----------------------------------------|
G------------------/5----5---------------*|--5---5-------------------/-9--7-7---5-|
D------------------/3----3-----5---------*|--3---3---2---2--/-5---5--/-5--5-5---3-|
A-0--0-0-0--0-0-0--------------3-----5----|----------0---0--/-3---3----------------|
E------------------------------------3---------------------------------------------|
 ................|
							   Chorus
E-------5-5---------------------------------------------------------------3--3-----|
B-------5-5----------------------------------------------|----------------3--3-----|
G-------5-5----------------------------------------------|---------5---------------|
D--------------9-------9-------10--9---------------------|--2---/5-3---5-----------|
A---7----------7-------7-------8---7--7h8p7h8p7-5--------|--0----------3--------5--|
E---5-------------0-0-----0-0---------------------8-7-5-------------------------3--|
                 pm..|   pm..|

E------------5-------------------------------------5-------------------------------|
B--------------5-------------------------------------5-----------------------------|
G----------------5----5---5---------/-7---7-----------5----5----------------------|
D---------------------3---3----5----/-5---5----------------3----5-----------------|
A----5----7---------------------3---------------7----------------3----5-----5----7-|
E--3-3----5-------------------------------------5---------------------3---3-3----5-|
  pm									 pm
				      Verse 3
E-5--------------------------------------------------------------------------------|
B---5-------------------------------|----------------------------------------------|
G-----5---5-------------------------|*---------------------------------------------|
D---------3---/-7----5--4-----------|*--2------------------------------------------|
A-------------/-5----3--2---5--5---|---0--0-0-0--0-0-0--0-0-0--0-0-0--0-0-0--0-0-0|
E---------------------------3--3--------------------------------------------------|
					  pm.......................................
									 __________
									|1.
E-----------------------------------------------------------------------|----------|
B-----------------------------------------------------------------------|----------|
G-----------------------------------------------------------------------|-/-5---5--|
D-----------------------------------------------------------------------|-/-3---3--|
A-0-0-0--0-0-0--0-0-0--0-0-0--0-0-0--0-0-0--0-0-0--0-0-0--0-0-0--0-0-0--|----------|
E-----------------------------------------------------------------------|----------|
 .....................................................................|
 ________________ _____________________________
                 |2.			       |	     Chorus (2)
E----------------|-----------------------------||----------------------------3--3--|
B----------------|-----------------------------||----------|-----------------3--3--|
G---------------*|--/-5----5-------------------||--Bridge--|---------5-------------|
D--5--------/-2-*|--/-3----3----5----5--------||----------|--2---/5-3----5--------|
A--3----5---/-0--|--------------3----3----5---||----------|--0-----------3--------|
E-------3--------|-------------------------3---||----------------------------------|

E----------------5-------------------3--3----------------5-------------------------|
B------------------5-----------------3--3------------------5-----------------------|
G--7----7-7----------5---5---5-------------7---7~~----------5---5---5--------/-7-|
D--5--5-5-5--------------3---3---5---------5---5~~--------------3---3----5---/-5-|
A-------------7-------------------3-------------------7--------------------3-------|
E-------------5---------------------------------------5----------------------------|
     pm
								    Guitar Solo 1
E------------5---------------------------------------------------------------------|
B--------------5--------------------------------------------------|-------/12------|
G---7-7----------5---5---5---------------------------------------|------------9-9-|
D-5-5-5--------------3---3----7------------slight-------2---2--|--/7~~----------|
A---------7--------------------5----3--2--0--A.H.----2-3-0---0--|--/7~~----------|
E---------5-----------------------------------4~-----------------------------------|
 pm

E-----------------------------------------------12---------------------------------|
B----------------.--.---.------1210~~10-12-/13-----12-10--------------------------|
G---------------14-14--12--12~----------------------------9~~--7-A.H:--------------|
D------------12---------------------------------------------------10~---/10-9------|
A--12p10-10-------------------------------------------------------------------10-|
E----------------------------------------------------------------------------------|

E---------------------------.------------------------------------------------------|
B----/10~~-/10-----10--10-12-12b(13)--r-10--8-/10-10~~---------------------------|
G---------------------------------------------------------10--9------10--9--------|
D--7------------7------------------------------------------------10--------10-----|
A------------------------------------------------------------------------------10-|
E----------------------------------------------------------------------------------|
									      pm...

E-------------------------------------------------------10-12-13-12-10-------------|
B----------------------------------------------10-12-13----------------13-12-10----|
G----------------------9-10-9----------9-10-12----------------------------------12-|
D---------9-10-9-10-12--------12-10-12---------------------------------------------|
A-8-10-12--------------------------------------------------------------------------|
E----------------------------------------------------------------------------------|
 ..........|

				            Guitar & Keybord Solo 2
E-------------------------------------------------------10-12-13-12-10-------------|
B------------10~~----|-------------------|--/-10-12-13----------------13-12-10-12-|
G-10-9-10-12----------|--Keyboard-Solo-1--|----------------------------------------|
D---------------------|-------------------|----------------------------------------|
A---------------------|-------------------|----------------------------------------|
E----------------------------------------------------------------------------------|

E-----------------------------------------------12-10------------------------------|
B-13-12-10--------------------------------------------13-12-13~-----13-12-10----10~|
G----------13-10-9---------------9h10p9~~------------------------------------13----|
D------------------12-10-9~10-12---------------------------------------------------|
A----------------------------------------------------------------------------------|
E----------------------------------------------------------------------------------|
			   pm...|

  Two Guitars...........|
E-------------10h12h13~----10-12-13-12-10------------------------------------------|
B--12h13h15~--12h13h15~-------------------13-12-10-----------------------------|---|
G--13h14h16~---------------------------------------13-10-9---------------------|---|
D----------------------------------------------------------12-10-9-------------|--2|
A------------------------------------------------------------------1211/12~~--|--0|
E----------------------------------------------------------------------------------|

			      Chorus (3)
E--------------------------------------------3--3-----------------5----------------|
B---------------------------|----------------3--3-------------------5--------------|
G---------------------------|*--------5------------7----7-7-----------5---5---5---|
D--4--5--7------------------|*--2--5-3---5--------5--5-5-5---------------3---3---|
A--2--3--5--7-8~-7p5--------|---0---------3--------------------7-------------------|
E--------------------8-7~-------------------------------------5-------------------|
								     pm

E-----3--3----------------5-------------------3--3-------------------5-------------|
B-----3--3------------------5-----------------3--3---------------------5-----------|
G-----------/-7---7-----------5---5---5-------------/-7----7-7----------5---5---5|
D--5--------/-5---5---------------3---3---5---------/-5--5-5-5--------------3---3|
A--3-------------------7-------------------3----------------------7----------------|
E----------------------5------------------------------------------5----------------|
									   pm
  _________________ ___________________________________
 |1.		   |2.				       |
E|-----------------|-----------------------------------||
B|-----------------|-----------------------------------||
G|------7----7-7--*|-----------------------------------|| end
D|-5----5--5-5-5--*|---7~---------------2---2-------||
A|-3---------------|---5~---3-2-0---3-2-0---0-------||
E|-----------------|---------------4-------------------||
          pm			    pm

--------------------------------------------------------------------------------------

  Rhythm Guitar during Solos (Keyboard Solo 1 - Guitar & Keyboard Solo 2)
E----------------------------------------------------------------------------------|
B------------------------------------------|---------------------------------------|
G-------5-------------------------/7--7-7--|*--5---5---------------------7---7-7-|
D-------3------2---2----5---5---/5--5-5--|*--3---3---2---2---5---5---5---5-5-|
A--x-------3--0---0----3---3------------|------------0---0---3---3------------|
E--x------------------------------------------------------------------------------|

  x2
E----------------------------------------------------------------------------------|
B---|------------------------------------------------------------------------------|
G--*|--5---5----------------------------------------------------------------------|
D--*|--3---3---2---2---/9-------9-------9--9--9--9---2--4--5--7------------------|
A---|-----------0---0---/7-------7-------7--7--7--7---0--2--3--5-/7-8~--7p5-------|
E----------------------------0-0-----0-0-------------------------------------8-7~~-|
			    pm..|   pm..|

E-----||
B-----||
G-----|| end
D-----||
A-----||
E----||

--------------------------------------------------------------------------------------

=======================
=TABLATURE EXPLANATION=
=======================

A.H. = Artificial Harmonic

pm..| = Palm mute

h = hammer on

p = pull off

/ = slide up

 = slide down

~ = Vibrato

T = Tap

b() = Bend

x = Pick Slide

--------
--------
---12--- = Tremolo pick
----/---
----/---
----/---

---.---
--12--- = Staccato
-------
-------
-------

|     |
|     |
|*   *| = repeat from * to *
|*   *| 
|     |


Текст, аккорды и табулатура для песни "Fullmoon", исполняет "Sonata Arctica".
Используемые в песне аккорды можно найти в разделе Как брать аккорды. Аккорды для шестиструнной гитары. Другие песни можно найти на нашем сайте, воспользовавшись алфавитным указателем вверху страницы.


 
Ошибка в тексте? Выделите ошибку и нажмите Ctrl+Enter