Alright im sick and tired of people trying to tab this one out and doing it half assed..
so here it is for all you soco fans

standard tuning.

Intro: clean
-------------------------------------------------
-------1--------1--------0------1-----3----------
----0---0----0---0----0---0------2-----0---------
---3-3---3--2-2---3--0-0---0---2----0------------
--3---3----3---3--------------0----2-------------
--------------------3---3------------------------


-------------------------------3-----------------
------1---------1-------0--------0---0----------- 
---0---0-----0---0-----0-----------0-------------
--3-3---3---2-2---3---0----0---------------------
-3---3-----3---3---------------------------------
---------------------3----3-3---3-3-3------------
shake down you make me break for goodness sake i think im on the edge
of something new with you
shout out don't drown the sound i'll drown you out you'll never scream so loud
as i wanna scream with you

Verse intro: distortion

-------------------------------------------------
-------------------------------------------------
-------------5-5-x-5-5-5-------------------------
3-3-x-3-3-3--5-5-x-5-5-5-5-5-x-5-5-5-7-7-x-7-7-5-
3-3-x-3-3-3--3-3-x-3-3-3-5-5-x-5-5-5-7-7-x-7-7-5-
1-1-x-1-1-1--------------3-3-x-3-3-3-5-5-x-5-5-3-

-------------------------------------------------
-------------------------------------------------
-------------5-5-x-5-5-5-------------------------
3-3-x-3-3-3--5-5-x-5-5-5-5-----------------------
3-3-x-3-3-3--3-3-x-3-3-3-5--1/10-----------------
1-1-x-1-1-1--------------3-----------------------

Verse: distortion-palm muted

-------------------------------------------------
-------------------------------------------------
-----5-------------------------------------------
3----5-x8-5----7----5----------------------------
3-x8-3----5-x8-7-x4-5-x4-------------------------
1---------3----5----3----------------------------

Standin there with your smile blindin your eyes from seeing my face as im

-------------------------------------------------
-------------------------------------------------
-----5-------------------------------------------
3----5-x8-5--------------------------------------
3-x8-3----5-x16----------------------------------
1---------3--------------------------------------

Dying to figure out a girl

-------------------------------------------------
-------------------------------------------------
-----5-------------------------------------------
3----5-x8-5----7----5----------------------------
3-x8-3----5-x8-7-x4-5-x4-------------------------
1---------3----5----3----------------------------
 But you're just so far away im on a coast so maybe i should stay

-------------------------------------------------
-------------------------------------------------
-----5-------------------------------------------
3----5-x8-5--------------------------------------
3-x8-3----5-x16----------------------------------
1---------3--------------------------------------
And wrap around your world

Chorus: distortion- open

-------------------------------------------------
-------------------------------------------------
----------5--------------------------------------
7----3----5-x8-5---------------------------------
7-x8-3-x8-3----5-x8------------------------------
5----1---------3---------------------------------
So don't say these currents are still killing me and you cant explain
how the wind went and pulled me into your hurricane

Chorus ending thing: still distortion

-------------------------------------------------
-------------------------------------------------
-------------5-5-x-5-5-5-------------------------
3-3-x-3-3-3--5-5-x-5-5-5-5-5-x-5-5-5-7-7-x-7-7-5-
3-3-x-3-3-3--3-3-x-3-3-3-5-5-x-5-5-5-7-7-x-7-7-5-
1-1-x-1-1-1--------------3-3-x-3-3-3-5-5-x-5-5-3-

-------------------------------------------------
-------------------------------------------------
-------------5-5-x-5-5-5-------------------------
3-3-x-3-3-3--5-5-x-5-5-5-5-----------------------
3-3-x-3-3-3--3-3-x-3-3-3-5-----------------------
1-1-x-1-1-1--------------3-----------------------

After piano break down ring out chorus chords

I could put in all that little stuff in the background..but frankly im tired of
doing this and if you can't figure it out with what ive given you then you're hopeless.


Текст, аккорды и табулатура для песни "Hurricane", исполняет "Something Corporate".
Используемые в песне аккорды можно найти в разделе Как брать аккорды. Аккорды для шестиструнной гитары. Другие песни можно найти на нашем сайте, воспользовавшись алфавитным указателем вверху страницы.


Слушать онлайн Hurricane


Something CorporateHurricane на Яндекс.Музыке


 
Ошибка в тексте? Выделите ошибку и нажмите Ctrl+Enter