Artist-Soil
Song-Unreal         
Album-Scars
                   
Tabbed by Big Bear       Tuning-Drop D and Down a tone.

Intro/chorus

D|-----------------------------------|
A|-----------------------------------|
F|-----------------------------------|
C|--6-5-5-5-6-5-5-5-6-5-5------------|
G|--4-3-3-3-4-3-3-3-4-3-3-4-4-4-4-0--|
C|------------------------4-4-4-4-0--|

 (twice clean,twice W/distortion)

D|-------------------------------------|
A|-------------------------------------|
F|-------------------------------------|
C|-7-6-6-6-6-7-6-6-6-6-----------------|
G|---------------------7-7-7-7-3-3-3-3-|
C|-------------------------------------|

Breakdown pt.1 (can you see...)

D|-----------------|
A|-----------------|
F|------6----------|
C|----5-4----------|
G|-0--3------------|
C|-0---------------|

Breakdown pt.2 (bleed emotions...)

D|-----------------|
A|-----------------|
F|-----------6-----|
C|---------5-4-----|
G|-0-0-0-0-3-------|
C|-0-0-0-0---------|
   pm---|


And thats it.Listen to the CD for Structure & stuff.
these are a cool band,so keep up the good work with your tabs.by the way,
can somebody PLEASE do some Skinlab tabs.I caught em' on tour with
Soil & they rock.


Текст, аккорды и табулатура для песни "Unreal", исполняет "Soil".
Используемые в песне аккорды можно найти в разделе Как брать аккорды. Аккорды для шестиструнной гитары. Другие песни можно найти на нашем сайте, воспользовавшись алфавитным указателем вверху страницы.


Слушать онлайн Unreal


SOiLUnreal на Яндекс.Музыке


 
Ошибка в тексте? Выделите ошибку и нажмите Ctrl+Enter