This song is performed on a 7- string, so you may hearin the chorus that it 
doesn't do exactly what I've said. In compensating and moving the low bit 
(it's a B power chord, if you're lucky enough to have a 7- string) up an octave
the chorus all sounds the same.

A:

E -----------------------------|
B -----------------------------|
G -----------------------------| (x4)
D -----------------------------|
A -----------------------------|
E -5-2-2-2-2-2-2-2-0-2-2-2--2-2|

B:

E ---------------|
B ---------------|
G ---------------| (x2)
D -4-4-4-4--4-4-4|
A -4-4-4-4--4-4-4|
E -2-2-2-2--2-2-2|

C:

E -------------------|
B -------------------|
G -------------------| (x2)
D -4----7----9----9-9|
A -4----7----9----9-9|
E -2----5----7----8-8|

D:

E ------------------------------------|
B ------------------------------------|
G ------------------------------------|
D -2-4-4-4-4-4-2-2-2-2-5-5-5-5-5-4-4-4|
A -2-4-4-4-4-4-2-2-2-2-5-5-5-5-5-4-4-4|
E -0-2-2-2-2-2-0-0-0-0-3-3-3-3-3-2-2-2|

These are the four sections of the song for the first guitar.
The second guitar's part goes something like this:

E ------|
B ------|
G ------|
D -2-4-5|
A ------|
E ------|

or occasionally:

E --------|
B --------|
G --------|
D -2-4-5-4|
A --------|
E --------|

The song goes like this:

INTRO: A A B B

VERSE: A A B

CHORUS: C

VERSE

CHORUS x 2

(BASS BIT)

BRIDGE: D

VERSE: A B B

CHORUS: C C C

OUTRO: B B


Текст, аккорды и табулатура для песни "New Faith", исполняет "Soil".
Используемые в песне аккорды можно найти в разделе Как брать аккорды. Аккорды для шестиструнной гитары. Другие песни можно найти на нашем сайте, воспользовавшись алфавитным указателем вверху страницы.


Слушать онлайн New Faith


SOiLNew Faith на Яндекс.Музыке


 
Ошибка в тексте? Выделите ошибку и нажмите Ctrl+Enter