Band:  Soil
Song:  Halo
Album: Scars
Tabbed by: Robyn Brown
Tuning: Drop D down Two (2) whole steps

Intro
---------------------------------
---------------------------------
---------------------------------
---------5p3p0-0----------5p3-5-- x2
-3h5p3p0-5p3p0-0--3h5p3p0-5p3-5--
---------5p3p0-0----------5p3-5--




Verse 1 
---------------------------------------------------------------------------------
---------------------------------------------------------------------------------
---------------------------------------------------------------------------------
-3h5p3p00-0h3h5p3p00-03h5p3p00-00h3p0h3-3h5p3p00-0h3h5p3p00-0h3h5p3p00-00h3p0---- x2
-3h5p3p00-0h3h5p3p00-03h5p3p00-00h3p0h3-3h5p3p00-0h3h5p3p00-0h3h5p3p00-00h3p0h3--
-3h5p3p00-0h3h5p3p00-03h5p3p00-00h3p0h3-3h5p3p00-0h3h5p3p00-0h3h5p3p00-00h3p0----


Chorus 1
-----------
-----------
----------- x4
-0-ten-5-3-
-0-ten-5-3-
-0-ten-5-3-


Verse 2
---------------------------------------------------------------------------------
---------------------------------------------------------------------------------
---------------------------------------------------------------------------------
-3h5p3p00-0h3h5p3p00-03h5p3p00-00h3p0h3-3h5p3p00-0h3h5p3p00-0h3h5p3p00-00h3p0---- x3 
-3h5p3p00-0h3h5p3p00-03h5p3p00-00h3p0h3-3h5p3p00-0h3h5p3p00-0h3h5p3p00-00h3p0h3--
-3h5p3p00-0h3h5p3p00-03h5p3p00-00h3p0h3-3h5p3p00-0h3h5p3p00-0h3h5p3p00-00h3p0----



Chorus 2
-----------
-----------
----------- x4 
-0-ten-5-3-
-0-ten-5-3-
-0-ten-5-3-


---------------------------------
---------------------------------
---------------------------------
---------5p3p0-0----------5p3-5-- x4
-3h5p3p0-5p3p0-0--3h5p3p0-5p3-5--
---------5p3p0-0----------5p3-5--


Breakdown 
--------------
--------------
--------------
-0-3h5p3p0-0-- x4
-0-3h5p3p0-0--
-0-3h5p3p0-0--


------------------
------------------
------------------
-0-2-3-2-0-2-5-3-- x2 
-0-2-3-2-0-2-5-3--
-0-2-3-2-0-2-5-3--


Verse 3
---------------------------------------------------------------------------------
---------------------------------------------------------------------------------
---------------------------------------------------------------------------------
-3h5p3p00-0h3h5p3p00-03h5p3p00-00h3p0h3-3h5p3p00-0h3h5p3p00-0h3h5p3p00-00h3p0---- x2
-3h5p3p00-0h3h5p3p00-03h5p3p00-00h3p0h3-3h5p3p00-0h3h5p3p00-0h3h5p3p00-00h3p0h3--
-3h5p3p00-0h3h5p3p00-03h5p3p00-00h3p0h3-3h5p3p00-0h3h5p3p00-0h3h5p3p00-00h3p0----


Chorus 3
-----------
-----------
----------- x3 
-0-ten-5-3-
-0-ten-5-3-
-0-ten-5-3-


------------------
------------------
------------------ 
-0-ten---------3--
-0-ten-(pause)-3--
-0-ten---------3--


-----------
-----------
----------- x4 
-0-ten-5-3-
-0-ten-5-3-
-0-ten-5-3-


Текст, аккорды и табулатура для песни "Halo", исполняет "Soil".
Используемые в песне аккорды можно найти в разделе Как брать аккорды. Аккорды для шестиструнной гитары. Другие песни можно найти на нашем сайте, воспользовавшись алфавитным указателем вверху страницы.


Слушать онлайн Halo


SOiLHalo на Яндекс.Музыке


 
Ошибка в тексте? Выделите ошибку и нажмите Ctrl+Enter