monkeys rule

by S.O.D.
from the album 'bigger than the devil'

transcribed by Christian Reindel ([email protected])
any questions or corrections-e-mail me

tune down 1/2 step     
Eb:|--------------------------------------|
Bb:|--------------------------------------|
Gb:|--------------------------------------|
Db:|--------------------------------------|
Ab:|---8----------------8-----------------|
Eb:|-------B--A--S--S------B--A--S--S-----|

Riff 1 - 2 times
Eb:|------------------------------|
Bb:|------------------------------|
Gb:|------------------------------|
Db:|------------------------------|
Ab:|-8^0--8^0--8^0--8^0--8^7-6^7--|
Eb:|------------------------------|

    Riff 2
Eb:|------------------------------|-----------------------|
Bb:|------------------------------|-----------------------|
Gb:|------------------------------|-----------------------|
Db:|10-10-10--9-9-9-----------9~--|10-10-10--9-9-9--------|
Ab:|-8--8--8--7-7-7-9-9-9-8-9-----|-8--8--8--7-7-7-9------|
Eb:|-8--8--8--7-7-7-7-7-7-6-7-----|-8--8--8--7-7-7-7------|
                                                  
Riff 1  Verse 1 (4 times)
Eb:|------------------------------|
Bb:|------------------------------|
Gb:|------------------------------|
Db:|------------------------------|
Ab:|-8^0--8^0--8^0--8^0--8^7-6^7--|
Eb:|------------------------------|

Riff 3  Anthrax moshriff (4 times)
Eb:|------------------------------|
Bb:|------------------------------|
Gb:|------------------------------|
Db:|------------------------------|
Ab:|------------------------------|
Eb:|-0-5^6-6-6^7--0-5^6-6-7-------|

Riff 1  Verse 2 (4 times)
Eb:|------------------------------|
Bb:|------------------------------|
Gb:|------------------------------|
Db:|------------------------------|
Ab:|-8^0--8^0--8^0--8^0--8^7-6^7--|
Eb:|------------------------------|


Riff 3  Anthrax moshriff (4 times)
Eb:|------------------------------|
Bb:|------------------------------|
Gb:|------------------------------|
Db:|------------------------------|
Ab:|------------------------------|
Eb:|-0-5^6-6-6^7--0-5^6-6-7-------|

    Riff 4 - Chorus 
Eb:|--------------------------------|----------------------------|
Bb:|--------------------------------|----------------------------|
Gb:|--------------------------------|----------------------------|
Db:|10-10-10--9-9-9-----------9~----|10-10-10--9-9-9-------------|
Ab:|-8--8--8--7-7-7-9-9-9-8-9-------|-8--8--8--7-7-7-9-9-8-X-X-X-|
Eb:|-8--8--8--7-7-7-7-7-7-6-7-------|-8--8--8--7-7-7-7-7-6-X-X-X-|

                                                     end riff 4
Eb:|--------------------------------|---------------------------|
Bb:|--------------------------------|---------------------------|
Gb:|--------------------------------|---------------------------|
Db:|10-10-10--9-9-9-----------9~----|10-10-10--9-9-9------------|
Ab:|-8--8--8--7-7-7-9-9-9-8-9-------|-8--8--8--7-7-7-9-9-9-8-9--|
Eb:|-8--8--8--7-7-7-7-7-7-6-7-------|-8--8--8--7-7-7-7-7-7-6-7--|

Riff 5 interlude (4 times)
Eb:|------------------------------------|
Bb:|------------------------------------|
Gb:|------------------------------------|
Db:|1010101010101010--------------------|
Ab:|-8-8-8-8-8-8-8-8-8-7-6-7-6-7-8-7----|
Eb:|-8-8-8-8-8-8-8-8--------------------|

  Riff 4 - Chorus 
Eb:|--------------------------------|----------------------------|
Bb:|--------------------------------|----------------------------|
Gb:|--------------------------------|----------------------------|
Db:|10-10-10--9-9-9-----------9~----|10-10-10--9-9-9-------------|
Ab:|-8--8--8--7-7-7-9-9-9-8-9-------|-8--8--8--7-7-7-9-9-8-X-X-X-|
Eb:|-8--8--8--7-7-7-7-7-7-6-7-------|-8--8--8--7-7-7-7-7-6-X-X-X-|

                                                     end riff 4
Eb:|--------------------------------|---------------------------|
Bb:|--------------------------------|---------------------------|
Gb:|--------------------------------|---------------------------|
Db:|10-10-10--9-9-9-----------9~----|10-10-10--9-9-9------------|
Ab:|-8--8--8--7-7-7-9-9-9-8-9-------|-8--8--8--7-7-7-9-9-9-8-9--|
Eb:|-8--8--8--7-7-7-7-7-7-6-7-------|-8--8--8--7-7-7-7-7-7-6-7--|






Riff 1 
Eb:|------------------------------|
Bb:|------------------------------|
Gb:|------------------------------|
Db:|------------------------------|
Ab:|-8^0--8^0--8^0--8^0--8^7-6^7--|
Eb:|------------------------------|

end.


Текст, аккорды и табулатура для песни "Monkeys Rule", исполняет "Sod".
Используемые в песне аккорды можно найти в разделе Как брать аккорды. Аккорды для шестиструнной гитары. Другие песни можно найти на нашем сайте, воспользовавшись алфавитным указателем вверху страницы.


 
Ошибка в тексте? Выделите ошибку и нажмите Ctrl+Enter