make room, make room

by S.O.D.
from the album 'bigger than the devil'

transcribed by Christian Reindel ([email protected])
any questions or corrections-e-mail me

tune down 1/2 step

Intro
Eb:|---------------------------------------------------|
Bb:|---------------------------------------------------|
Gb:|---------------------------------------------------|
Db:|---------------------------------------------------|
Ab:|-------------------------------7-----7----(7)------|
Eb:|----/-5---(5)--B-A-S-S---------5-----5----(5)------|
 
    Riff 1 - 2 times
Eb:|-----------------------------------|------------------------------------|
Bb:|-----------------------------------|------------------------------------|
Gb:|-----------------------------------|------------------------------------|
Db:|-----------------------------------|------------------------------------|
Ab:|-7-7-7-2-2-2-8-8-8-8-8-8-10-/11-11-|-8-8-8-3-3-3-9-9-9-9-9-9-10-/11-11--|
Eb:|-5-5-5-0-0-0-6-6-6-6-6-6-8-/-9--9--|-6-6-6-1-1-1-7-7-7-7-7-7--8-/-9--9--|

    I saw a pro-life sticker just the other day...
Eb:|-------------------------------------------------|
Bb:|-------------------------------------------------|
Gb:|-------------------------------------------------|
Db:|-------------------------------------------------|
Ab:|-7------------------------------------X--X--X----|
Eb:|-5--B-A-S-S---------------------------X--X--X----|
                                      palm mute on A  
    Riff 1 
    make room make room ...
Eb:|-----------------------------------|------------------------------------|
Bb:|-----------------------------------|------------------------------------|
Gb:|-----------------------------------|------------------------------------|
Db:|-----------------------------------|------------------------------------|
Ab:|-7-7-7-2-2-2-8-8-8-8-8-8-10-/11-11-|-8-8-8-3-3-3-9-9-9-9-9-9-10-/11-11--|
Eb:|-5-5-5-0-0-0-6-6-6-6-6-6-8-/--9--9-|-6-6-6-1-1-1-7-7-7-7-7-7--8-/-9--9--|

Eb:|-----------------------------------|----------------|
Bb:|-----------------------------------|----------------|
Gb:|-----------------------------------|----------------|
Db:|-----------------------------------|----------------|
Ab:|-7-7-7-2-2-2-8-8-8-8-8-8-10-/11-11-|-8-8-8-3-3-3-9--|
Eb:|-5-5-5-0-0-0-6-6-6-6-6-6-8-/--9--9-|-6-6-6-1-1-1-7--|






fast part
    Riff 2 - 3 times  cyanide the water supply...
Eb:|--------------------------------------------------------|
Bb:|--------------------------------------------------------|
Gb:|--------------------------------------------------------|
Db:|---------------------------7-10-/11--8---7-10-/11--8--|
Ab:|---------------------------5--8-/-9--6---5--8-/-9--6--|
Eb:|--5555555555555555555555--------------------------------|


    Riff 3 - 4 times   
    a y2k census  and we're filled up...
Eb:|--------------------------------------------|
Bb:|--------------------------------------------|
Gb:|--------------------------------------------|
Db:|--12-----15-----9-----11--------------------|
Ab:|--10-----13-----7------9--------------------|
Eb:|--------------------------------------------|


    Riff 2 - 4 times  line'em up against the wall...        
Eb:|--------------------------------------------------------|
Bb:|--------------------------------------------------------|
Gb:|--------------------------------------------------------|
Db:|---------------------------7-10-/11--8---7-10-/11--8--|
Ab:|---------------------------5--8-/-9--6---5--8-/-9--6--|
Eb:|--5555555555555555555555--------------------------------|
     nuke'em         nuke'em
Eb:|-----------------------------|
Bb:|-----------------------------|
Gb:|-----------------------------|
Db:|-7-10-/11--8---7-10-/11--8-|
Ab:|-5--8-/-9--6---5--8-/-9--6-|
Eb:|-----------------------------|

    Riff 4 - 8 times
Eb:|------------------------|
Bb:|------------------------|
Gb:|------------------------|
Db:|------------------------|
Ab:|--7-10-/11--8----------|
Eb:|--5--8-/-9--6----------|

    Riff 5 - 4 times
    there's too many people...
Eb:|-------------------------------------|
Bb:|-------------------------------------|
Gb:|-------------------------------------|
Db:|-7-------------4-------6-------------|
Ab:|-5------3------2-------4-------------|
Eb:|--------1----------------------------|
 
  


  Riff 6 - 4 times
    there is not enough space...
Eb:|-------------------------------------|
Bb:|-------------------------------------|
Gb:|-------------------------------------|
Db:|-7-7-7-7---------4-4-4-4-6-6-6-6-----|
Ab:|-5-5-5-5-3-3-3-3-2-2-2-2-4-4-4-4-----|
Eb:|---------1-1-1-1---------------------|


    Riff 2 - 4 times  cyanide the water supply...         
Eb:|--------------------------------------------------------|
Bb:|--------------------------------------------------------|
Gb:|--------------------------------------------------------|
Db:|---------------------------7-10-/11--8---7-10-/11--8--|
Ab:|---------------------------5--8-/-9--6---5--8-/-9--6--|
Eb:|--5555555555555555555555--------------------------------|

   send in more     send in more
Eb:|-----------------------------|
Bb:|-----------------------------|
Gb:|-----------------------------|
Db:|-7-10-/11--8---7-10-/11--8-|
Ab:|-5--8-/-9--6---5--8-/-9--6-|
Eb:|-----------------------------|


Eb:|--------------------------------------------|
Bb:|--------------------------------------------|
Gb:|--------------------------------------------|
Db:|--------------------------------------------|
Ab:|--7---------------------7-7-7-7-7-7-7-7-7-7-|
Eb:|--5---B-A-S-S-----------5-5-5-5-5-5-5-5-5-5-|
  

    Riff 1 - 2 times
    make room make room ...
Eb:|-----------------------------------|------------------------------------|
Bb:|-----------------------------------|------------------------------------|
Gb:|-----------------------------------|------------------------------------|
Db:|-----------------------------------|------------------------------------|
Ab:|-7-7-7-2-2-2-8-8-8-8-8-8-10-/11-11-|-8-8-8-3-3-3-9-9-9-9-9-9-10-/11-11--|
Eb:|-5-5-5-0-0-0-6-6-6-6-6-6-8-/-9--9--|-6-6-6-1-1-1-7-7-7-7-7-7--8-/-9--9--|


    Riff 7 - 2 times
    make room make room ...
Eb:|----------------------|-------------------------|
Bb:|----------------------|-------------------------|
Gb:|----------------------|-------------------------|
Db:|----------------------|-------------------------|
Ab:|-7-------2-------8----|----8-------3------8-----|
Eb:|-5-------0-------6----|----6-------1------7-----|


Eb:|-------------------------|
Bb:|-------------------------|
Gb:|-------------------------|
Db:|-------------------------|
Ab:|-------------------------|
Eb:|-5-5-5-5-5-5-5-5-5-5-5-5-|

end.



Текст, аккорды и табулатура для песни "Make Room Make Room", исполняет "Sod".
Используемые в песне аккорды можно найти в разделе Как брать аккорды. Аккорды для шестиструнной гитары. Другие песни можно найти на нашем сайте, воспользовавшись алфавитным указателем вверху страницы.


 
Ошибка в тексте? Выделите ошибку и нажмите Ctrl+Enter