kill the assholes

by S.O.D.
from the album 'bigger than the devil'

transcribed by Christian Reindel ([email protected])
any questions or corrections-e-mail me

tune down 1/2 step

Intro 

   riff 1 - 4 times
Eb:|-----------------------|
Bb:|-----------------------|
Gb:|-----------------------|
Db:|--------6-6-6----------|
Ab:|--5-5-5-4-4-4-2-(2)----|
Eb:|--3-3-3-------0-(0)----|

   riff 2
Eb:|----------------------------------------------------------|
Bb:|----------------------------------------------------------|
Gb:|----------------------------------------------------------|
Db:|-79-/-79-9-/-79-/-79-9-/-79-/-79-9------------------|
Ab:|-57-/-57-7-/-57-/-57-7-/-57-/-57-7-67-7-78-8-8----|
Eb:|-----------------------------------------45-5-56-6-6----|

Eb:|----------------------------------------------------------|
Bb:|----------------------------------------------------------|
Gb:|----------------------------------------------------------|
Db:|-79-/-79-9-/-79-/-79-9-/-79-/-79-9------------------|
Ab:|-57-/-57-7-/-57-/-57-7-/-57-/-57-7-67-7-78--------|
Eb:|-----------------------------------------45-5-56--------|
                                                     .
Verse 1 - assholes and opinions...

riff 3 ( 2 times)
            3 times                             1 time
Eb:|-----------------------------|----------------------------|
Bb:|-----------------------------|----------------------------|
Gb:|-----------------------------|----------------------------|
Db:|-79-/-79-9-----------------|-79-/-79-9-/-79-/-79-9--|
Ab:|-57-/-57-7--67-7-78-8-8--|-57-/-57-7-/-57-/-57-7--|
Eb:|--------------45-5-56-6-6--|----------------------------|

Chorus 1

    kill     kill     kill     kill the assholes
Eb:|--------------------------------------------|
Bb:|--------------------------------------------|
Gb:|--------------------------------------------|
Db:|-------6--------6--------6--3-3-3-3-4-4-4-4-|
Ab:|-8-8-6-4--8-8-6-4--8-8-6-4--1-1-1-1-2-2-2-2-|
Eb:|-6-6-4----6-6-4----6-6-4--------------------|


   kill      kill      kill      kill all the assholes
Eb:|---------------------------------------------------|
Bb:|---------------------------------------------------|
Gb:|---------------------------------------------------|
Db:|-------6--------6--------6--3--3--3--3--4--4--4--4-|
Ab:|-8-8-6-4--8-8-6-4--8-8-6-4--1--1--1--1--2--2--2--2-|
Eb:|-6-6-4----6-6-4----6-6-4---------------------------|

    kill     kill     kill     kill the assholes
Eb:|--------------------------------------------|
Bb:|--------------------------------------------|
Gb:|--------------------------------------------|
Db:|-------6--------6--------6--3-3-3-3-4-4-4-4-|
Ab:|-8-8-6-4--8-8-6-4--8-8-6-4--1-1-1-1-2-2-2-2-|
Eb:|-6-6-4----6-6-4----6-6-4--------------------|

    kill      kill      kill     
Eb:|---------------------------|
Bb:|---------------------------|
Gb:|---------------------------|
Db:|-------6--------6--------6-|
Ab:|-8-8-6-4--8-8-6-4--8-8-6-4-|
Eb:|-6-6-4----6-6-4----6-6-4---|

     we're gonna rise ...                              kill the assholes tonight
Eb:|----------------------------------------------------------------------------|
Bb:|----------------------------------------------------------------------------|
Gb:|----------------------------------------------------------------------------|
Db:|10-10-10-10--------10-10-10-10--------10-10-10-10--------10-10-10-------/-9-|
Ab:|-8--8--8--8-9-9-9-9-8--8--8--8-9-9-9-9-8--8--8--8-9-9-9-9-8--8--8-9-9-9-/-7-|
Eb:|------------7-7-7-7------------7-7-7-7------------7-7-7-7---------7-7-7-----|

back to riff 2
Verse 2  with riff 3 (2times)
Chorus 2 - it's the same as Chorus 1 

Outro
Eb:|-----------------------|
Bb:|-----------------------|
Gb:|-----------------------|
Db:|-----------------------|
Ab:|-2-(2)-----------------|
Eb:|-0-(0)------B-A-S-S----|

           3 times
Eb:|-----------------------|
Bb:|-----------------------|
Gb:|-----------------------|
Db:|--------6-6-6----------|
Ab:|--5-5-5-4-4-4-2-(2)----|
Eb:|--3-3-3-------0-(0)----|




     when the toilet is full 
     you flush down the waste
     and our toilet is full
     and is floating in space
Eb:|-----------------------------------|
Bb:|-----------------------------------|
Gb:|-----------------------------------|
Db:|----------6-6-6-6------------------|
Ab:|--5-5-5-5-4-4-4-4-5-5-5-5-2-2-2-2--|
Eb:|--3-3-3-3---------3-3-3-3-0-0-0-0--|


    we're human waste      floating in space     human waste
Eb:|--------------------------------------------|----------------|
Bb:|--------------------------------------------|----------------|
Gb:|--------------------------------------------|----------------|
Db:|--------------------------------------------|----------------|
Ab:|--5--5--5--5--2-(2)----5--5--5--5--2-(2)----|--5--5--2-------|
Eb:|--3--3--3--3--0-(0)----3--3--3--3--0-(0)----|--3--3--0-------|

end.


Текст, аккорды и табулатура для песни "Kill The Assholes", исполняет "Sod".
Используемые в песне аккорды можно найти в разделе Как брать аккорды. Аккорды для шестиструнной гитары. Другие песни можно найти на нашем сайте, воспользовавшись алфавитным указателем вверху страницы.


 
Ошибка в тексте? Выделите ошибку и нажмите Ctrl+Enter