S.O.D. 
                      - SPEAK ENGLISH OR DIE - 
                             FREDDY KRUEGER



Tabbed by Tom V
July 2002


Let each E5 chord ring 
For a 4 count
Intro                        
|-----|-----|-----|-----|    |----------------------------|
|-----|-----|-----|-----|    |----------------------------|
|-----|-----|-----|-----|    |--9-----10----12-----9--7--| repeat
|--2--|--2--|--2--|--2--|    |--9-----10----12-----9--7--|   7x
|--2--|--2--|--2--|--2--|    |--7--0--8--0--10--0--7--5--|
|--0--|--0--|--0--|--0--|    |----------------------------|


last time hold 8 count
|-----|
|-----|
|--9--|
|--9--|
|--7--|



|------------------------------------------|
|------------------------------------------|
|--10--109------------10--109------------| 
|--10--109------------10--109------------|
|--8---8-7------------8---8-7------------|
|------------00000000------------00000000--|
               pm------|         pm------|

|--------------------------------------------|
|--------------------------------------------|
|-10--109---10--109---10--109-------------| 
|-10--109---10--109---10--109-------------|   
|-8---8-7---8---8-7---8---8-7-------------| 
|----------------------------------00000000--|
                                   pm------|

|------------------------------------------|
|------------------------------------------|
|--10--109------------10--109------------| 
|--10--109------------10--109------------|
|--8---8-7------------8---8-7------------|
|------------00000000------------00000000--|
             pm------|           pm------|

 
|---------------------------------|----------------------------------|                                       
|---------------------------------|----------------------------------|                                              
|-10--109---10--109---10--109--|----------------------------------|                                          
|-10--109---10--109---10--109--|-2-2-2-2-2-2-2-2-2-2-2-2-2-2-2-2--|                                     
|-8---8-7---8---8-7---8---8-7--|-2-2-2-2-2-2-2-2-2-2-2-2-2-2-2-2--|                                   
|---------------------------------|-0-0-0-0-0-0-0-0-0-0-0-0-0-0-0-0--|                                          
                                    pm-----------------------|

Verses -  play 4x total
|------------------------------|--------------------------------------|
|------------------------------|--------------------------------------|
|------------------------------|--------------------------------------|
|-5-----5---------5---5---5/6--|-----5-----5---------5---5---5---5/6--|
|-5-----5---------5---5---5/6--|-----5-----5---------5---5---5---5/6--|
|-3-0-0-3-0-0-0-0-3-0-3-0-3/4--|-0-0-3-0-0-3-0-0-0-0-3-0-3-0-3-0-3/4--|
     pm-|  pm----|   pm  pm      pm-|  pm-|  pm----|   pm  pm  pm        

His hand spells death, he breathes his vile breath, there's no way..




Last time
|--------|                                         
|--------|                                 
|-----9--|  
|--2--9--| 
|--2--7--|   
|--0-----| 
   
Chorus
|------------------------------------------|
|------------------------------------------|
|--10--10--9------------10--10--9--------| 
|--10--10--9------------10--10--9--------|
|--8---8---7------------8---8---7--------|
|--------------00000000----------00000000--|
               pm------|         pm------|

He's come for you, what will you do..


|---------------------------------------------|
|---------------------------------------------|
|-10-10--9--10-10--9--10-10--9-------------| 
|-10-10--9--10-10--9--10-10--9-------------|   
|-8--8---7--8--8---7--8--8---7-------------| 
|----------------------------------*00000000--|
                                   pm------|
He'll slash you, he'll rip you, he'll cut you in two



 
|------------------------------------------|
|------------------------------------------|
|--10--10--9------------10--10--9--------| 
|--10--10--9------------10--10--9--------|
|--8---8---7------------8---8---7--------|
|--------------00000000----------00000000--|
               pm------|         pm------|
He's come for you, what will you do..

|----------------------------------|----------------------------------|                                       
|----------------------------------|----------------------------------|                                              
|-10-10--9--10-10--9--10-10--9--|----------------------------------|                                          
|-10-10--9--10-10--9--10-10--9--|-2-2-2-2-2-2-2-2-2-2-2-2-2-2-2-2--|                                     
|-8--8---7--8--8---7--8--8---7--|-2-2-2-2-2-2-2-2-2-2-2-2-2-2-2-2--|                                   
|----------------------------------|-0-0-0-0-0-0-0-0-0-0-0-0-0-0-0-0--|                                          
                                     pm-----------------------|
He'll slash you, he'll rip you, he'll cut you in two..

Return to verses



Break - play 4x         *        *last time let ring for 4 count then 
|--------------------|  |-----|   go to verses for last time
|--------------------|  |-----|   
|--------------------|  |--9--|  
|--------------------|  |--9--|  
|--7-0-8-0-10-0-7-5--|  |--7--| 
|--------------------|  |-----|       
   pm--------------|


Текст, аккорды и табулатура для песни "Freddy Krueger", исполняет "Sod".
Используемые в песне аккорды можно найти в разделе Как брать аккорды. Аккорды для шестиструнной гитары. Другие песни можно найти на нашем сайте, воспользовавшись алфавитным указателем вверху страницы.


 
Ошибка в тексте? Выделите ошибку и нажмите Ctrl+Enter