----------------------------------------------------------------------------
SNOW PATROL - We Can Run Away Now They're Dead And Gone
----------------------------------------------------------------------------
Tabbed by: Crezwell

Email: [email protected]

Think its a B-Side to a single off Final Straw, which is a Superb Album.  Sorry about
the lack of info, but track it down!!


Standard Tuning.


Intro x 4/Verse x 8

One step too far, is not far enough....

e-----------|-----------|------------|------------|
b-----------|-----------|------------|------------|
g---7-7-x-x-|---9-9-x-x-|--10-10-x-x-|---9-9-x--x-|
D---7-7-x-x-|---9-9-x-x-|--10-10-x-x-|---9-9-x--x-|
A---5-5-x-x-|---7-7-x-x-|---8--8-x-x-|---7-7-x--x-|
E-----------|-----------|------------|------------|

Break/Bridge

e---------|
b---------|
g---12----|
D---12----|
A---10----|
E---------|

Chorus

But you are all i really want in this life....

e---------|--------|--------|-----------|
b---------|--------|--------|-----------|
g---12----|---9----|---7----|---12------|
D---12----|---9----|---7----|---12------|
A---10----|---7----|---5----|---10------|
D---------|--------|--------|-----------|

End on

e------|
b------|
g---7--|
D---7--|
A---5--|
E------|


Текст, аккорды и табулатура для песни "We Can Run Away Now Theyre Dead And Gone", исполняет "Snow Patrol".
Используемые в песне аккорды можно найти в разделе Как брать аккорды. Аккорды для шестиструнной гитары. Другие песни можно найти на нашем сайте, воспользовавшись алфавитным указателем вверху страницы.


 
Ошибка в тексте? Выделите ошибку и нажмите Ctrl+Enter