----------------------------------------------------------------------------
			     SNOW PATROL - Starfighter Pilot
----------------------------------------------------------------------------
Tabbed by: Stevo
Email: [email protected]

Great song off Songs for Polar Bears (1st album)
Probably my fave Snow Patrol Song.

Standard Tuning
EADGBE

Intro

   G#	      G#	 G#	   G#


e--4444---|--4444----|--4444---|--4444-----
b--4444---|--4444----|--4444---|--4444-----
g--5555---|--5555----|--5555---|--5555-----
D--6666---|--6666----|--6666---|--6666-----
A--6666---|--6666----|--6666---|--6666-----
D--4444---|--4444----|--4444---|--4444----- x2


Verse (consists of 1st phrase for lyric, then 2nd phrase before
       the next lyric)

   G#	      G#	 G#	   G#

Andrews a starfighter pilot.....

e--4444---|--4444----|--4444---|--4444-----
b--4444---|--4444----|--4444---|--4444-----
g--5555---|--5555----|--5555---|--5555-----
D--6666---|--6666----|--6666---|--6666-----
A--6666---|--6666----|--6666---|--6666-----
D--4444---|--4444----|--4444---|--4444----- 

   B	      A#   	 A	   G#


e--7777---|--6666----|--5555---|--4444-----
b--7777---|--6666----|--5555---|--4444-----
g--8888---|--7777----|--6666---|--5555-----
D--9999---|--8888----|--7777---|--6666----- 
A--9999---|--8888----|--7777---|--6666-----
D--7777---|--6666----|--5555---|--4444----- 



Chorus

   F          G          A                 	

 You know I think of you.....

e---11----|---333----|--5555---|
b---11----|---333----|--5555---|
g---22----|---444----|--6666---|
D---33----|---555----|--7777---|
A---33----|---555----|--7777---|
D---11----|---333----|--5555---| x4


    G          F             E                 	
 
 Just for you, just for you, just for you.

e----3333------|----1111-----|----0000---|----0000---
b----3333------|----1111-----|----0000---|----0000---
g----4444------|----5555-----|----1111---|----1111---
D----5555------|----3333-----|----2222---|----2222---
A----5555------|----3333-----|----2222---|----2222---
D----3333------|----1111-----|----0000---|----0000---

(back to verse/outro)

Outro 

   A#        A#         E         E

e--4444---|--4444----|--0000---|--0000-----
b--4444---|--4444----|--0000---|--0000-----
g--5555---|--5555----|--1111---|--1111-----
D--6666---|--6666----|--2222---|--2222-----
A--6666---|--6666----|--2222---|--2222-----
D--4444---|--4444----|--0000---|--0000-----

Repeat til fade end.


Hope it helps you play

Cheers

Steve McCall.


Текст, аккорды и табулатура для песни "Starfighter Pilot", исполняет "Snow Patrol".
Используемые в песне аккорды можно найти в разделе Как брать аккорды. Аккорды для шестиструнной гитары. Другие песни можно найти на нашем сайте, воспользовавшись алфавитным указателем вверху страницы.


Слушать онлайн Starfighter Pilot


Snow PatrolStarfighter Pilot на Яндекс.Музыке


 
Ошибка в тексте? Выделите ошибку и нажмите Ctrl+Enter