tuned down 1/2 step

Eb |-0h1----0h1----0h1-----1-----1----------3---5-3----------1-----0-1----|
Bb |-----3------3--------3-----3---3------3---3-----3-------1-----1----1--|
Gb |-------------------3-----2-------2--0-------------0-------------------|
Db |------------------------------------------------------3-----2---------|
Ab |----------------------------------------------------------------------|
Eb |----------------------------------------------------------------------|

repeat 5X

Chorus

(chords)
      Dm      Bb     Asus4    G5       F       C
Eb |---1---|-------|-------|---3---|---1---|---0---|
Bb |---3---|---3---|---3---|---3---|---1---|---1---|
Gb |---2---|---3---|---2---|---0---|---2---|---0---|
Db |---0---|---3---|---2---|---0---|---3---|---2---|
Ab |-------|---1---|---0---|---x---|---3---|---3---|
Eb |-------|-------|-------|---3---|---1---|-------|

Dm                 Bb     Asus4           G5
with this knife I'll cut out the part of me
       F             C
the part that cares for you
Dm                 Bb     Asus4            G5
with this knife I'll cut out the heart of me
        F             C
the heart that cares for you

Eb |-0-0-0-0-0-0-0-0--0-0-0--0-0-0-0--1-1-1--1-1-1-1-1--0-0-0--0-0-0-0--|
Bb |-1-1-1-1-1-1-1-1--1-1-1--1-1-1-1--3-3-3--3-3-3-3-3--1-1-1--1-1-1-1--|
Gb |-2-2-2-2-2-2-2-2--0-0-0--2-2-2-2--3-3-3--2-2-2-2-2--2-2-2--0-0-0-0--|
Db |-2-2-2-2-2-2-2-2--2-2-2--3-3-3-3--------------------3-3-3--2-2-2-2--|
Ab |------------------3-3-3--3-3-3-3--------------------3-3-3--3-3-3-3--|

Dm                  Bb     Asus4   G5 
I cant believe the way you took me down
F       C       Dm
I never saw the pain
            Bb      Asus4     G5
coming in a million different miles
     F      C      Dm
like poison for my veins

*Chorus*
Dm                Bb      Asus4           G5
with this knife i'll cut out the part of me
       F              C
the part that cares for you
Dm                 Bb     Asus4            G5
with this knife I'll cut out the heart of me
       F              C
the heart that cares for you

(repeat chorus)

Eb |-0-0-0-0-0-0-0-0--0-0-0--0-0-0-0--1-1-1--1-1-1-1-1--0-0-0--0-0-0-0--|
Bb |-1-1-1-1-1-1-1-1--1-1-1--1-1-1-1--3-3-3--3-3-3-3-3--1-1-1--1-1-1-1--|
Gb |-2-2-2-2-2-2-2-2--0-0-0--2-2-2-2--3-3-3--2-2-2-2-2--2-2-2--0-0-0-0--|
Db |-2-2-2-2-2-2-2-2--2-2-2--3-3-3-3--------------------3-3-3--2-2-2-2--|
Ab |------------------3-3-3--3-3-3-3--------------------3-3-3--3-3-3-3--|
Eb |--------------------------------------------------------------------|

the hate, and the fear.....
(repeat 3X)

*Outro is same as intro, only difference is the slowing of the tempo towards the
end of the riff, and ending up strumming a Dm chord.  Enjoy and have fun with it!


Текст, аккорды и табулатура для песни "With This Knife", исполняет "Smile Empty Soul".
Используемые в песне аккорды можно найти в разделе Как брать аккорды. Аккорды для шестиструнной гитары. Другие песни можно найти на нашем сайте, воспользовавшись алфавитным указателем вверху страницы.


 
Ошибка в тексте? Выделите ошибку и нажмите Ctrl+Enter