for info on smile empty soul visit www.smileemptysoul.com 
         you can also find them at www.atlantic-records.com


        artist: smile empty soul
          song: bottom of a bottle 
         album: ?

        this is an easy to play but was hard to tab. i did my my best so don't
judge. its kinda tricky but you will get the hang of it.   the tuning is drop d
then a half step down (Db-Ab-Db-Gb-Bb-eb)

          p= pull off
          h= hammer on
          s= slide
          X= palm mute(totally kill the string)
          /= strumming
          *= harmonic

  
 intro    no distortion 
eb----------------------------------------------|  2x
Bb------------------------------------0---------|   
Gb-----4------5-5p4p0----------0--------2-0-----|
Db----------------------------------------------|
Ab--2-----------------------0----3--------------|
Db-------0--------------------------------------| 


  
                            
    verse   no distortion
        pick lightly
eb-------------------------------------|
Bb-------------------------------------|
Gb-------------------------------------|
Db-------------------------------------|
Ab-------------------------------------|
Db--2p0-10-10--0-5s7-7-7s9-9-9-5-------|



  pre-chorus   no distortion  
remember / means to dtrum it  switch on the distortion at the 10th fret
eb---------------------------------------------|
Bb---------------------------------------------|
Gb---------------------------------------------|
Db--2//////-0//////-7//////-10//////-----------|
Ab--2//////-0//////-7//////-10//////-----------|
Db--2//////-0//////-7//////-10//////-----------|



   chorus  heavy distortion
eb-----------------------------------------------|  2x
Bb-----------------------------------------------| 
Gb-----------------------------------------------|
Db--2p0--10-10-10-10--0-5s7-7-XX-7s9-9-9-9--5----|
Ab--2p0--10-10-10-10--0-5s7-7-XX-7s9-9-9-9--5----|
Db--2p0--10-10-10-10--0-5s7-7-XX-7s9-9-9-9--5----|
 


       guitar2 does this during chorus
eb-------------------------------------1717171717----|
Bb--55555s7777s88s101010101010s151515151515151515----|
Gb---------------------------------------------------|
Db---------------------------------------------------|
Ab---------------------------------------------------|
Db---------------------------------------------------|


      fill 
eb-------------------|
Bb--*7*--*5*---------|
Gb------------*7*----|
Db-------------------|
Ab-------------------|
Db-------------------|



   interlude
  pm.........................................
eb-----------------------------------------------|
Bb-----------------------------------------------|
Gb-----------------------------------------------|
Db--2////////--5///////-10////-9--9--9--10-10----|
Ab--2////////--5///////-10////-10-10-10-10-10----|
Db--2////////--5///////-10////-10-10-10-10-10----|


     outro                                pm...
eb------------------------------------------------|
Bb------------------------------------------------|
Gb------------------------------------------------|
Db--2p0--10-10-10--0-5s7-7-7-XX-7s9-9-9--5--22----|
Ab--2p0--10-10-10--0-5s7-7-7-XX-7s9-9-9--5--22----|
Db--2p0--10-10-10--0-5s7-7-7-XX-7s9-9-9--5--22----|


   thats it and if you want to know the order of it just listen to the song
                                                                    
                                                                   --peace!!


Текст, аккорды и табулатура для песни "Bottom Of A Bottle", исполняет "Smile Empty Soul".
Используемые в песне аккорды можно найти в разделе Как брать аккорды. Аккорды для шестиструнной гитары. Другие песни можно найти на нашем сайте, воспользовавшись алфавитным указателем вверху страницы.


Слушать онлайн Bottom of a Bottle


Smile Empty SoulBottom of a Bottle на Яндекс.Музыке


 
Ошибка в тексте? Выделите ошибку и нажмите Ctrl+Enter