Where Boys Fear To Tread by Smashing Pumpkins
off Mellon Collie and The Infanite Sadness

Tabbed by Danny Warren ([email protected])

TUNE DOWN 1 STEP (Eb, Ab, Db, Gb, Bb, Eb)


Intro (Rythym guitar part)


  Pm.......................
e:--------------------------|
B:--------------------------|
G:--------------------------|
D:-------3---3--3-3-3-3-3--3|
A:-------3---3--3-3-3-3-3--3|
E:111---1---1--1-1-1-1-1--1|


Verse

e:------------------------------|
B:------------------------------|
G:------------------------------|
D:/13--6-6---------10----5--3--5|
A:/13--6-6---------10----5--5--5|
E:/11--4-4--0-0-0--8--0--3--3--3|

You might find it easier to play it this way:

e:------------------------------|
B:------------------------------|
G:/7---------------5------------|
D:/7---6-6---------5-----5--5--5|
A:/5---6-6---------3-----5--5--5|
E:-----4-4--0-0-0-----0--3--3--3|


Chorus

e:------------------------------|
B:------------------------------|
G:------------------------------|
D:-3-3-3-3-3-3-3-3-3-3-3/543--|
A:-3-3-3-3-3-3-3-3-3-3-3/543--|
E:-1-1-0-1-1-0-1-1-0-1-1/321--|


Thanks!

Questions, Comments?  Write me at [email protected]H.WEDNET.EDU


Текст, аккорды и табулатура для песни "Where Boys Fear To Tread", исполняет "Smashing Pumpkins".
Используемые в песне аккорды можно найти в разделе Как брать аккорды. Аккорды для шестиструнной гитары. Другие песни можно найти на нашем сайте, воспользовавшись алфавитным указателем вверху страницы.


 
Ошибка в тексте? Выделите ошибку и нажмите Ctrl+Enter