Smashing Pumpkins - Tonite Reprise

Tune down 1/2 step to (Eb,Ab,Db,Gb,Bb,Eb)

Eb--------------------------------------------------|
Bb-----0--------0--------------0--------0-----------|
Gb--------0--------0-----0--------0--------0-----0--|
Db--------------------------------------------------| x2
Ab--3--------3--------3-----5--------5--------5-----|
Eb--------------------------------------------------|

Eb--------------------------------------------------|
Bb-----0--------0--------------0--------0-----------|
Gb--------0--------0-----0--------0--------0-----0--|
Db--------------------------------------------------|
Ab--3--------3--------3-----5--------5--------5-----|
Eb--------------------------------------------------|
		     And the embers...

Eb--------------------------------------------------|
Bb-----0--------0--------------0--------0-----------|
Gb--------0--------0-----0--------0--------0-----0--|
Db--------------------------------------------------|
Ab--3--------3--------3-----5--------5--------5-----|
Eb--------------------------------------------------|

Eb--------------------------------------------------|
Bb-----0--------0--------------0--------0-----------|
Gb--------0--------0-----0--------0--------0-----0--|
Db--------------------------------------------------|
Ab--3--------3--------3-----5--------5--------5-----|
Eb--------------------------------------------------|

Eb--------------------------------------------------|
Bb-----0--------0--------------0--------0-----------|
Gb--------0--------0-----0--------0--------0-----0--|
Db--------------------------------------------------|
Ab--7--------7--------7----10-------10-------10-----|
Eb--------------------------------------------------|
   i was born...

Eb--------------------------------------------------|
Bb-----0--------0--------------0--------0-----------|
Gb--------0--------0-----0--------0--------0-----0--|
Db--------------------------------------------------|
Ab--3--------3--------3-----5--------5--------5-----|
Eb--------------------------------------------------|

Eb--------------------------------------------------|
Bb-----0--------0--------------0--------0-----------|
Gb--------0--------0-----0--------0--------0-----0--|
Db--------------------------------------------------|
Ab--3--------3--------3-----5--------5--------5-----|
Eb--------------------------------------------------|

Eb--------------------------------------------------|
Bb-----0--------0--------------0--------0-----------|
Gb--------0--------0-----0--------0--------0-----0--|
Db--------------------------------------------------|
Ab--3--------3--------3-----5--------5--------5-----|
Eb--------------------------------------------------|

Eb--------------------------------------------------|
Bb-----0--------0--------------0--------0-----------|
Gb--------0--------0-----0--------0--------0-----0--|
Db--------------------------------------------------|
Ab--7--------7--------7----10-------10-------10-----|
Eb--------------------------------------------------|
   underground...

Eb--------------------------------------------------|
Bb-----0--------0--------------0--------0-----------|
Gb--------0--------0-----0--------0--------0-----0--|
Db--------------------------------------------------|
Ab--3--------3--------3-----5--------5--------5-----|
Eb--------------------------------------------------|
   Believe...

Eb--------------------------------------------------|
Bb-----0--------0--------------0--------0-----------|
Gb--------0--------0-----0--------0--------0-----0--|
Db--------------------------------------------------|
Ab--3--------3--------3-----5--------5--------5-----|
Eb--------------------------------------------------|

Eb--------------------------------------------------|
Bb-----0--------0--------------0--------0-----------|
Gb--------0--------0-----0--------0--------0-----0--|
Db--------------------------------------------------|
Ab--3--------3--------3-----5--------5--------5-----|
Eb--------------------------------------------------|

Eb---------3-----------3-----------0--------0-------|
Bb---------3-----------3-----------0--------0--0----|
Gb-----0------------2-----------0--------0-----0----|
Db---------------------------------------------2----|
Ab---------------------------------------------2----|
Eb---3--------3--2--------2--0-----------------0----|

[2nd part]

Eb--0-----0--0-----0--0--0--0-----0--0-----0--0--0--|
Bb--1-----1--1-----1--1--1--1-----1--1-----1--1--1--|
Gb--2-----2--2-----2--2--2--0-----0--0-----0--0--0--|
Db--2-----2--2-----2--2--2--2-----2--2-----2--2--2--|
Ab--0-----------------0--0--3-----3-----------------|
Eb--------------------------------------------------|
 That you can...
                                         
Eb--------3--3-----------3--3-----------------------|
Bb--------3--3-----------3--3-----------0-----------|
Gb--------0--0-----------2--2-----0--0--0----0-0----|
Db--0-----0--0-----0--------------2--2--2----2-2----|
Ab--2--------------0--------------2--2--2----2-2----|
Eb--3--------------2--------------0--0--0----0-0----|  

Eb--0-----0--0-----0--0--0--0--0--0--0--0--0--0--0--...|
Bb--1-----1--1-----1--1--1--1--1--1--1--3--3--3--3--...|
Gb--2-----2--2-----2--2--2--0--0--0--0--0--0--0--0--...|
Db--2-----2--2-----2--2--2--2--2--2--2--2--2--2--2--...|
Ab--0-----------------0--0--3--3--3--3--3--3--3--3--...|
Eb--------------------------------------------------...|

Eb--0-----0--0--0-----0--0--0-----0--0-----0--0--0--|
Bb--3-----3--3--3-----3--3--3-----3--3-----3--3--3--|
Gb--0-----0--0--0-----0--0--2-----2--2-----2--2--2--|
Db--2-----2--0--0-----0--0--0-----0--0-----0--0--0--|
Ab--3-----3--0--2-----2--0--0-----0--0-----0--0--0--|
Eb--------------------------------------------------|

Eb--0-----0--0--0-----0--0--0-----0--0-----0--0--0--|
Bb--3-----3--3--3-----3--3--3-----3--3-----3--3--3--|
Gb--0-----0--0--0-----0--0--2-----2--2-----2--2--2--|
Db--2-----2--0--0-----0--0--0-----0--0-----0--0--0--|
Ab--3-----3--0--2-----2--0--0-----0--0-----0--0--0--|
Eb--------------------------------------------------|
   
Eb--0-----0--0--0-----0--0--0-----0--0-----0--0--0--|
Bb--3-----3--3--3-----3--3--3-----3--3-----3--3--3--|
Gb--0-----0--0--0-----0--0--2-----2--2-----2--2--2--|
Db--2-----2--0--0-----0--0--0-----0--0-----0--0--0--|
Ab--3-----3--0--2-----2--0--0-----0--0-----0--0--0--|
Eb--------------------------------------------------|
   Tonite...

Eb--------3--3-----------3--3-----------------------|
Bb--------3--3-----------3--3-----------0-----------|
Gb--------0--0-----------2--2-----0--0--0----0-0----|
Db--0-----0--0-----0--------------2--2--2----2-2----|
Ab--2--------------0--------------2--2--2----2-2----|
Eb--3--------------2--------------0--0--0----0-0----|

Eb--0-----0--0-----0--0--0--0-----0--0-----0--0--0--|
Bb--1-----1--1-----1--1--1--1-----1--1-----1--1--1--|
Gb--2-----2--2-----2--2--2--0-----0--0-----0--0--0--|
Db--2-----2--2-----2--2--2--2-----2--2-----2--2--2--|
Ab--0-----------------0--0--3-----3-----------------|
Eb--------------------------------------------------|

Eb--------3--3-----------3--3-----------------------|
Bb--------3--3-----------3--3-----------0-----------|
Gb--------0--0-----------2--2-----0--0--0----0-0----|
Db--0-----0--0-----0--------------2--2--2----2-2----|
Ab--2--------------0--------------2--2--2----2-2----|
Eb--3--------------2--------------0--0--0----0-0----|

Eb--0-----0--0-----0--0--0--0-----0--0-----0--0--0--|
Bb--1-----1--1-----1--1--1--1-----1--1-----1--1--1--|
Gb--2-----2--2-----2--2--2--0-----0--0-----0--0--0--|
Db--2-----2--2-----2--2--2--2-----2--2-----2--2--2--|
Ab--0-----------------0--0--3-----3-----------------|
Eb--------------------------------------------------|

Eb--------3--3-----------3--3-----------------------|
Bb--------3--3-----------3--3-----------0-----------|
Gb--------0--0-----------2--2-----0--0--0----0-0----|
Db--0-----0--0-----0--------------2--2--2----2-2----|
Ab--2--------------0--------------2--2--2----2-2----|
Eb--3--------------2--------------0--0--0----0-0----|

Eb--0-----0--0-----0--0--0--0-----0--0-----0--0--0--|
Bb--1-----1--1-----1--1--1--1-----1--1-----1--1--1--|
Gb--2-----2--2-----2--2--2--0-----0--0-----0--0--0--|
Db--2-----2--2-----2--2--2--2-----2--2-----2--2--2--|
Ab--0-----------------0--0--3-----3-----------------|
Eb--------------------------------------------------| 
  The   impossible...
            
Eb--------3--3-----------3--3-----------------------|
Bb--------3--3-----------3--3-----------0-----------|
Gb--------0--0-----------2--2-----0--0--0----0-0----|
Db--0-----0--0-----0--------------2--2--2----2-2----|
Ab--2--------------0--------------2--2--2----2-2----|
Eb--3--------------2--------------0--0--0----0-0----|

Eb------0-----------------------0-------------------|
Bb-----1-----------------------1--------------------|
Gb----2-----------------------0---------------------|
Db---2-----------------------2----------------------|
Ab--0-----------------------3-----------------------|
Eb--------------------------------------------------|

Eb--------------------------------------------------|
Bb-----0--------0--------------0--------0-----------|
Gb--------0--------0-----0--------0--------0-----0--|
Db--------------------------------------------------|
Ab--3--------3--------3-----5--------5--------5-----|
Eb--------------------------------------------------|

Eb--------------------------------------------------|
Bb-----0--------0--------------0--------0-----------|
Gb--------0--------0-----0--------0--------0-----0--|
Db--------------------------------------------------|
Ab--3--------3--------3-----5--------5--------5-----|
Eb--------------------------------------------------|

Eb--------------------------------------------------|
Bb-----0--------0--------------0--------0-----------|
Gb--------0--------0-----0--------0--------0-----0--|
Db--------------------------------------------------|
Ab--3--------3--------3-----5--------5--------5-----|
Eb--------------------------------------------------|

Eb-------3----------3----------0--------------------|
Bb------3----------3----------0---------------------|
Gb-----0----------2----------0----------------------|
Db----0----------0----------2-----------------------|
Ab---2----------0----------2------------------------|
Eb--3----------2----------0-------------------------|

This is a great song. Enjoy.


Текст, аккорды и табулатура для песни "Tonite Reprise", исполняет "Smashing Pumpkins".
Используемые в песне аккорды можно найти в разделе Как брать аккорды. Аккорды для шестиструнной гитары. Другие песни можно найти на нашем сайте, воспользовавшись алфавитным указателем вверху страницы.


 
Ошибка в тексте? Выделите ошибку и нажмите Ctrl+Enter