Band: The Smashing Pumpkins
Song: Saturnine
Album: Machina 2/Friends and Enamie of modern music
Tuning:E,A,D,G,B,E
 
                            CHORDS
                  Em  G5  C5 Asus D5 Dm  C  E5
                |-x---x---x---x---x---2--0--0-|
                |-x---x---x---x---x---3--1--0-|
                |-x---x---5---2---7---2--0--0-|
                |-2---5---5---2---7---0--2--2-|
                |-2---5---3---0---5---x--3--2-|
                |-0---3---x---x---x---x--x--0-|

    Em                                     G5                    Em
OK.     to the ages I am speaking (to the) creatures_ I am sky_____
C5            Asus     D5               D5     Asus
bloody simple features everyone chooses sides____
         D               E5                  D               C
we are inside,  we are inside now,  we are inside,  we are inside
|---------------------------------------------------------------|
|saturnine how I love to wast your time,  saturnine,  saturnine |
|goodbye all you widows tearstained underneath                  |
|blessed to the many who are seeking some relief                |
|                                                               |
|                |-----------------|                            |           
|                |-----------------|                            |
|                |-----------------|6x                          |
|                |-----------------|                            |
|                |-----------------|                            |
|                |-0-/7-5-/10-/12-|                            |
|---------------------------------------------------------------|
     Dm         E5                            Dm          E5
saturnine how I love to waste you time,  saturnine,  saturnine
     Dm           C             
saturnine you are waiting on the sign 
Em                           C5                   Em
camera take this picture the wreckage is outside____
   C        C                 Dm          C
we here are forgotten  we are loosing our light
         Dm              E5                Dm               E5
we are inside,  we are inside now,  we are inside,  we are inside 
              Dm                   C
you've always run but you've never find 

|--------------------------------------------------------0-|
|--------------------------------------------------------0-|
|--------------------------------------------------------0-|
|--------------------------------------------------------2-|
|--------------------------------------------------------2-|
|-7-5-/7-5-3-2-/7-5-/7-5-3-2-/7-5-/7-5-3-2--0-|

|----------------------------------------------------------|
|----------------------------------------------------------|
|----------------------------------------------------------|
|--------------------------------------------------------0-|
|-------------------------------------------------/5-4--2-|
|-/9-7-/9-7-5-4-/9-7-9-/7-5-4-/9-7-/9-7--------2-|

(note: I was not realy sure about the manes of the CHORDS)


Текст, аккорды и табулатура для песни "Saturnine", исполняет "Smashing Pumpkins".
Используемые в песне аккорды можно найти в разделе Как брать аккорды. Аккорды для шестиструнной гитары. Другие песни можно найти на нашем сайте, воспользовавшись алфавитным указателем вверху страницы.


 
Ошибка в тексте? Выделите ошибку и нажмите Ctrl+Enter