Title: Porcelina of the Vast Oceans
Artist: The Smashing Pumpkins
Tuning: Db Ab db Gb

During the intro play:
G|------------------------------------|
d|------------------------------------|
A|0--------0------0-0-3-------------3-|
D|------------------------------------|

When it gets loud:

Riff1-1                          Riff1-2
G|------------------------------|-----------------------|
d|------------------------------|-----------------------|
A|9----12----7----9---5-7-7-5-5-|-----------------------|
D|--0-----0----0----0-----------|7-7-7-7-7-9-10-10-10-10|

Play Riff1-1 and Riff2 a few times, on the last time
play Riff 1-2 twice then play:
Riff1-3
G|------------------|
d|------------------|
A|10----10----10----|
D|---5-----5-----5--|

Then it gets quiet:
Riff2
G|--------------------------------------------------------|
d|--------------------------------------------------------|
A|5--5-5-5--5-7-------------2-3--3-3-3--3-5---------------|
D|--------------7--7-7-7--7-----------------5--5-5-5--5-7-|

Go back to the Riff1 sequence again, then Riff2 again.

Then bass is out. Come in with Riff2 again.

Then Play Riff1 again.  Then play Riff1-2 and 1-3
a few times.  Then:

G|-----------------------------------------|
d|-----------------------------------------|
A|-----------------------------------------|
D|0-0-0-0-0--0-3-5-5--5-5--5-5--5-5--5--5--|

Then play Riff 2 again.  And fade out.








Текст, аккорды и табулатура для песни "Porcelina Of The Vast Oceans", исполняет "Smashing Pumpkins".
Используемые в песне аккорды можно найти в разделе Как брать аккорды. Аккорды для шестиструнной гитары. Другие песни можно найти на нашем сайте, воспользовавшись алфавитным указателем вверху страницы.


 
Ошибка в тексте? Выделите ошибку и нажмите Ctrl+Enter