Tabbed by: Brandon Bordignon
Tuning: Standard


Bass or Guitar 2 (Palm Muted)
E|-7-7-7-7-7-7-7-7-7-7-7-7-7-7-7-7-7-7-7-7-7-7-7-7-7-7-7-7-7-7|

Guitar 1 (intro) with siren		end on
e|-----------------------------------|---------------------------------------------|
B|-----------------------------------|---------------------------------------------|
G|-----9-14-14------- --9---------|---------------------------------------------|
D|-9---9-14-14--- 9----9--9-9---|---------9-------------- 9------------------| 
A|-9---7-12-12--- 9----7--9-9---|---------9---------------9------------------|
E|-7----------------7--------7-7---|---------7---------------7------------------|

Guitar 1 (verse)
e|---------------------------------------------------------------------------|
B|---------------------------------------------------------------------------|
G|------7-------9-9-9--------------------------------------------------------|
D|--9---7--7---9-9-9---------------------------------------------------------|
A|--9---5--7---7-7-7---------------------------------------------------------|
E|--7-------5---------------------------------------------------------------|

Guitar 1 (Chorus)
e|--------------------------------------------------------------------------|
B|--------------------------------------------------------------------------|
G|---------------9-------------------------7-------------------------------|
D|---------------9----9--------------------7-- -7--------------------------|
A|---------------7----9--------------------5----7-------------------------|
E|--------------------7--------------------------5--------------------------|

     And the joke is 	when he awoke he


e|--------------------------------------------|
B|--------------------------------------------|
G|----7----7----7---------------------------|
D|----7----7----7-----7----7----7---7---5-|
A|----5----5----5-----7----7----7—7----5-|
E|----------------------5----5----5—5----3-|

     Though he was covered in Coke Fizz

Not sure about the solo please help me out!!!!


Текст, аккорды и табулатура для песни "Money City Maniacs", исполняет "Sloan".
Используемые в песне аккорды можно найти в разделе Как брать аккорды. Аккорды для шестиструнной гитары. Другие песни можно найти на нашем сайте, воспользовавшись алфавитным указателем вверху страницы.


 
Ошибка в тексте? Выделите ошибку и нажмите Ctrl+Enter