Lines you Amend
 SLOAN
One Chord to Another
                                   Cool tune
I think it's pretty close.
E-mail me at: [email protected]
Att'n Thomas Smith

    Intro          
G---|----------------------||----------------|-------------------||---------
D---|---------------------*||----------------|-------------------||---------
A---|--3--3-------3--3--*||--3--3---3--3-|--3--3-------3--3--||---------
E---|--------3h5-----------||---------------|--------3h5--------||---------
                                                                        

    Verse         
G---|----------------|---------------------|----------------|-------1---|------
D---|----------------|---------------------|----------------|--1h3-----|------
A---|--3--3--3--3--|--3--3-------3--3--|--1--1--1--1--|------------|------
E---|-----------------|--------3h5--------|----------------|------------|------
                                                                        -

        
G----------1-----------||-------------------------||--||----------------------
D---1h3-----3--1-----||*----------------------*||--||*---------------------
A-------------------3--||*--------0h3----------*||--||*--3--3-------3--3----
E-----------------------||---1--1-------1--1-----||--||---------3h5----------
                                                                        

         After 1st & 3rd Verses            To Chorus                                 
G----||-----r--r--||---------------------   ||
D---*||-----e--e--||--------------------* ||
A---*||-----s--s--||-3--3-------3--3--* ||
E----||--5--t--t--||--------3h5---------  ||
                                                                        

.

     After Second Verse
G-||----------------|-----------------|------------------|-----
D|----------------|------------------|------------------|-----
A||----------------|--7--7--5-------|-----0h3--3--1--|-----
E||--5--5--5--5--|-----------71---|--1---------------|-----
                                                                        

       
G-----------------|------------------|--------------2--2---|--0--0--0--0----
D------3--3--2--|--2--------0--0--|--3--3--2--2--------|----------------
A---1------------|-----3--3---------|----------------------|----------------
E-----------------|------------------|-----------------------|----------------
                                                                        






                                            5x        
G---0--0--0--0--||------------------||------------------------------|---------
D-----------------||*---------------*||------------------------------|---------
A-----------------||*---------------*||--3--3--2--2--0--0--0--0--|--3------
E-----------------||---3--3--3--3---||------------------------------|---------
                                                                        

                                                              3x       
G-----------------||---------------------------------||------------------------
D-----------------||*------------------------------*||------------------------
A---3--2--2--0--||*--3--3--2--2--0--0--0--0--*||--3--3--2--2------------
E-----------------||----------------------------------||--------------5--5------
                                                                        

                                       
G-----------------------------------------||--------------------------------
D-----------------------------------------||--------------------------------
A---------7--7--5----------0h3--3--1--||--------------------------------
E---5--5-----------71--1---------------||--------------------------------
                                                                        
After Playing through the Verses the first and third time 
go directly to the Chorus. After the Chorus move on to the next 
verse.  After the second Verse the song hits a kind of bridge which 
plays through and then returns to the very beginning of the song.  
Try to follow it 
 
Having  the song helps


========================================================================
==                       TABLATURE EXPLANATION                        ==
========================================================================

----------                ----------                ----t---
----5h8--- Hammeron       ----(8)--- Ghost          ----6--- Tap
----------                ---------- Note           --------
----5p8--- Pulloff        ----------                --------

----------                ----------                -----p--
----5/8--- Slide Up       -----x---- Dead           -----7-- Pop
----------                ---------- Note           --s-----
----58--- Slide Down     ----------                --5----- Slap 

----------                ||------|| Repeat         --------
----5~~~-- Vibrato        ||*----*||                ---5^--- Bend
----------                ||*----*||                --------
----------                ||------||                --------

----------                ----------                --------
-4:------- Time           ----------                --------
-4:------- Signature      ----------                --------
----------                ----------                --------

Rhythm:
  w = whole note            W = dotted whole
  h = half note             H = dotted half
  q = quarter note          Q = dotted quarter
  e = eighth note           E = dotted eighth
  s = sixteenth note        S = dotted sixteenth
  t = 32nd note             T = dotted 32nd
  x = 64th note             X = dotted 64th
  ^ = triplet

========================================================================
==            Created with a demo version of BUCKET O' TAB            ==
==              tablature creation software for Windows               ==
==                  For more info email [email protected]                   ==
========================================================================

--Message-Boundary-26754--



Текст, аккорды и табулатура для песни "Lines You Amend", исполняет "Sloan".
Используемые в песне аккорды можно найти в разделе Как брать аккорды. Аккорды для шестиструнной гитары. Другие песни можно найти на нашем сайте, воспользовавшись алфавитным указателем вверху страницы.


 
Ошибка в тексте? Выделите ошибку и нажмите Ctrl+Enter